Hale - Kahit Pa tab

intro:

|--------------------------------||--------------------------------||-9-8----------------------------||-9-9-------7---6h7-6h7-6h7------||-7-7-------7---7---7---7--------||-----------5---5---5---5--------|
|--------------------------------||--------------------------------||-9-8----------------------------||-9-9------7-6-------------------||-7-7------7-7-------------------||----------5-5-------------------|
kau nlng bhlang tumuklas sa strumming.. verse 1:
|--------------------------------||--------------------------------||-9-8----------------------------||-9-9-------7---6h7-6h7-6h7------||-7-7-------7---7---7---7--------||-----------5---5---5---5--------|
pre-chorus:
|-----------------------------||-----------------------------||-4s6-6--6s4-4----------------||-4s6-6--6s4-4--7-------------||-2s4-4--4s2-2--7-------------||---------------5-------------|
|-----------------------------||-----------------------------||-4s6-6--6s4-4----4-----------||-4s6-6--6s4-4--7-4-----------||-2s4-4--4s2-2--7-2-----------||---------------5-------------|
chorus:
|--------------------||--------------------||-9--4-----4---------||-9--4--7--4---------||-7--2--7--2---------||-------5------------|
2x yan.. tpos:
|---------------------||---------------------||-9--4--6--7----------||-9--4--6--7----------||-7--2--4--5----------||---------------------|
interlude:
|--------------------------------||--------------------------------||-9-8----------------------------||-9-9-------7---6h7-6h7-6h7------||-7-7-------7---7---7---7--------||-----------5---5---5---5--------|
|--------------------------------||--------------------------------||-9-8----------------------------||-9-9------7-6-------------------||-7-7------7-7-------------------||----------5-5-------------------|
verse 2:
|--------------------------------||--------------------------------||-9-8----------------------------||-9-9-------7---6h7-6h7-6h7------||-7-7-------7---7---7---7--------||-----------5---5---5---5--------|
pre-chorus:
|-----------------------------||-----------------------------||-4s6-6--6s4-4----------------||-4s6-6--6s4-4--7-------------||-2s4-4--4s2-2--7-------------||---------------5-------------|
|-----------------------------||-----------------------------||-4s6-6--6s4-4----4-----------||-4s6-6--6s4-4--7-4-----------||-2s4-4--4s2-2--7-2-----------||---------------5-------------|
chorus:
|--------------------||--------------------||-9--4-----4---------||-9--4--7--4---------||-7--2--7--2---------||-------5------------|
|---------------------||---------------------||-9--4--6--7----------||-9--4--6--7----------||-7--2--4--5----------||---------------------|
~~~~~~~~~~~~~~~~~~~~~~~~~~~~~~~~~~
|-----------------------||-----------------------||---4-6-----------------||-7-4-6-----------------||-7-2-4-----------------||-5---------------------|(at kahit pa ikaw lang at..)
~~~~~~~~~~~~~~~~~~~~~~~~~~~~~~~~~~ solo: w/ wah
|---------12~---------12~-------------------------||-10-9-10-----10-9-10-----10-9--9h10-10-12-14-12~-||-------------------------------------------------||-------------------------------------------------||-------------------------------------------------|
|---------12~---------12~--------------------------------||-10-9-10-----10-9-10-----10-9--9-10-12-12s14-12-10-9----||-----------------------------------------------------9--||--------------------------------------------------------||--------------------------------------------------------||--------------------------------------------------------|
chords used:
|-----------------------||-----------------------||---4-6-----------------||-7-4-6-----------------||-7-2-4-----------------||-5---------------------|
bridge:
|-----------------------||-----------------------||---4-6-----------------||-7-4-6-----------------||-7-2-4-----------------||-5---------------------|(hindi ko man hawak ang panahon..)
bsta 2loy 2loy lng yan..hnggng dun sa anu..bsta't ikaw at ikaw parin..
|-----------------------||-----------------------||---4-6-7---------------||-7-4-6-7---------------||-7-2-4-5---------------||-5---------------------|
(bsta't ikaw at ikaw pariiiiiiiinn..) chorus:
|--------------------||--------------------||-9--4-----4---------||-9--4--7--4---------||-7--2--7--2---------||-------5------------|
|---------------------||---------------------||-9--4--6--7----------||-9--4--6--7----------||-7--2--4--5----------||---------------------|
tpos:
|-----------------------||-----------------------||---4-6-----------------||-7-4-6-----------------||-7-2-4-----------------||-5---------------------|(at kahit pa ikaw lang at..)
|-----------------------||-----------------------||---4-6-7---------------||-7-4-6-7---------------||-7-2-4-5---------------||-5---------------------|(at kahit pa ikaw lang at..ako..)
end with:
|--------------||--------------||-1------------||-2------------||-2------------||--------------|
add nyo friendster ko: walalang_00@yahoo.com.ph
Tap to rate this tab
 
# A B C D E F G H I J K L M N O P Q R S T U V W X Y Z