Halford - The One You Love To Hate tab

Halford
The One You Love To Hate                                                       

                                            
E||----------------------------------|---------------------------------|B||----------------------------------|---------------------------------|G||----------------------------------|---------------------------------|D||------7-----7-----5-----8-----5-7-|------7-----7-----5-----8-----5--|A||------5-----5-----3-----6-----3-5-|------5-----5-----3-----6-----3--|D||--0-0---0-0---0-0---0-0---0-0-----|--0-0---0-0---0-0---0-0---0-0----|
----------------------------------|---------------------------------|----------------------------------|---------------------------------|----------------------------------|---------------------------------|------7-----7-----5-----8-----5-7-|------7-----7-----5-----8-----5--|------5-----5-----3-----6-----3-5-|------5-----5-----3-----6-----3--|--0-0---0-0---0-0---0-0---0-0-----|--0-0---0-0---0-0---0-0---0-0----|
----------------------------------|---------------------------------|----------------------------------|---------------------------------|----------------------------------|---------------------------------|------7-----7-----5-----8-----5-7-|------7-----7-----5-----8-----5--|------5-----5-----3-----6-----3-5-|------5-----5-----3-----6-----3--|--0-0---0-0---0-0---0-0---0-0-----|--0-0---0-0---0-0---0-0---0-0----|
----------------------------------|---------------------------------|----------------------------------|---------------------------------|----------------------------------|---------------------------------|------7-----7-----5-----8-----5-7-|------7-----7-----5-----8-----5--|------5-----5-----3-----6-----3-5-|------5-----5-----3-----6-----3--|--0-0---0-0---0-0---0-0---0-0-----|--0-0---0-0---0-0---0-0---0-0----|
-----------------------------|-----------------------------------|-----------------------------|-----------------------------------|--5/7-----10/7-----5/7-------|--5/7-----10/7-----3-3-3-3-5-5-5-5-|--5/7-----10/7-----5/7-------|--5/7-----10/7-----3-3-3-3-5-5-5-5-|--3/5-----8/-5-----3/5-------|--3/5-----8/-5-----1-1-1-1-3-3-3-3-|------0-0------0-0-----------|------0-0------0-0-----------------|
-----------------------------|-----------------------------------|-----------------------------|-----------------------------------|--5/7-----10/7-----5/7-------|--5/7-----10/7-----2-2-2-----------|--5/7-----10/7-----5/7-------|--5/7-----10/7-----------3-3-3-5-5-|--3/5-----8/-5-----3/5-------|--3/5-----8/-5---------------------|------0-0------0-0-----------|------0-0------0-0-----------------|
-----------------------------|-----------------------------------|-----------------------------|-----------------------------------|--5/7-----10/7-----5/7-------|--5/7-----10/7-----3-3-3-3-5-5-5-5-|--5/7-----10/7-----5/7-------|--5/7-----10/7-----3-3-3-3-5-5-5-5-|--3/5-----8/-5-----3/5-------|--3/5-----8/-5-----1-1-1-1-3-3-3-3-|------0-0------0-0-----------|------0-0------0-0-----------------|
-----------------------------|-----------------------------------|-----------------------------|-----------------------------------|--5/7-----10/7-----5/7-------|--5/7-----10/7-----2-2-2-----------|--5/7-----10/7-----5/7-------|--5/7-----10/7-----------3-3-3-5-5-|--3/5-----8/-5-----3/5-------|--3/5-----8/-5---------------------|------0-0------0-0-----------|------0-0------0-0-----------------|
----------------------------------|----------------------------------|----------------------------------|----------------------------------|----------------------------------|----------------------------------|----------------------------------|----------------------------------|----------------------------------|----------------------------------|--0-0-0-0-0-0-0-0-3-3-3-5-3-3-5h6-|--0-0-0-0-0-0-0-0-3-3-3-5-3-3-5h6-|
----------------------------------|----------------------------------|----------------------------------|----------------------------------|----------------------------------|----------------------------------|----------------------------------|----------------------------------|----------------------------------|------------------3-3-3-----------|--0-0-0-0-0-0-0-0-3-3-3-5-3-3-5h6-|--0-0-0-0-0-0-0-0-------5-5-3-5h6-|
----------------------------------|----------------------------------|----------------------------------|----------------------------------|----------------------------------|----------------------------------|----------------------------------|----------------------------------|----------------------------------|----------------------------------|--0-0-0-0-0-0-0-0-3-3-3-5-3-3-5h6-|--0-0-0-0-0-0-0-0-3-3-3-5-3-3-5h6-|
----------------------------------|----------------------------------|----------------------------------|----------------------------------|----------------------------------|----------------------------------|----------------------------------|----------------------------------|----------------------------------|------------------3-3-3-----------|--0-0-0-0-0-0-0-0-3-3-3-5-3-3-5h6-|--0-0-0-0-0-0-0-0-------5-5-3-5h6-|
-----------------------------|-----------------------------------|-----------------------------|-----------------------------------|--5/7-----10/7-----5/7-------|--5/7-----10/7-----3-3-3-3-5-5-5-5-|--5/7-----10/7-----5/7-------|--5/7-----10/7-----3-3-3-3-5-5-5-5-|--3/5-----8/-5-----3/5-------|--3/5-----8/-5-----1-1-1-1-3-3-3-3-|------0-0------0-0-----------|------0-0------0-0-----------------|
-----------------------------|-----------------------------------|-----------------------------|-----------------------------------|--5/7-----10/7-----5/7-------|--5/7-----10/7-----2-2-2-----------|--5/7-----10/7-----5/7-------|--5/7-----10/7-----------3-3-3-5-5-|--3/5-----8/-5-----3/5-------|--3/5-----8/-5---------------------|------0-0------0-0-----------|------0-0------0-0-----------------|
-----------------------------|-----------------------------------|-----------------------------|-----------------------------------|--5/7-----10/7-----5/7-------|--5/7-----10/7-----3-3-3-3-5-5-5-5-|--5/7-----10/7-----5/7-------|--5/7-----10/7-----3-3-3-3-5-5-5-5-|--3/5-----8/-5-----3/5-------|--3/5-----8/-5-----1-1-1-1-3-3-3-3-|------0-0------0-0-----------|------0-0------0-0-----------------|
-----------------------------|-----------------------------------|-----------------------------|-----------------------------------|--5/7-----10/7-----5/7-------|--5/7-----10/7-----2-2-2-----------|--5/7-----10/7-----5/7-------|--5/7-----10/7-----------3-3-3-5-5-|--3/5-----8/-5-----3/5-------|--3/5-----8/-5---------------------|------0-0------0-0-----------|------0-0------0-0-----------------|
----------------------------------|----------------------------------|----------------------------------|----------------------------------|----------------------------------|----------------------------------|----------------------------------|----------------------------------|----------------------------------|----------------------------------|--0-0-0-0-0-0-0-0-3-3-3-5-3-3-5h6-|--0-0-0-0-0-0-0-0-3-3-3-5-3-3-5h6-|
----------------------------------|----------------------------------|----------------------------------|----------------------------------|----------------------------------|----------------------------------|----------------------------------|----------------------------------|----------------------------------|------------------3-3-3-----------|--0-0-0-0-0-0-0-0-3-3-3-5-3-3-5h6-|--0-0-0-0-0-0-0-0-------5-5-3-5h6-|
----------------------------------|----------------------------------|----------------------------------|----------------------------------|----------------------------------|----------------------------------|----------------------------------|----------------------------------|----------------------------------|----------------------------------|--0-0-0-0-0-0-0-0-3-3-3-5-3-3-5h6-|--0-0-0-0-0-0-0-0-3-3-3-5-3-3-5h6-|
----------------------------------|----------------------------------|------|----------------------------------|----------------------------------|------|----------------------------------|----------------------------------|------|----------------------------------|----------------------------------|------|----------------------------------|------------------3-3-3-----------|------|--0-0-0-0-0-0-0-0-3-3-3-5-3-3-5h6-|--0-0-0-0-0-0-0-0-------5-5-3-5h6-|------|
-------------------|----------------------|--------------------|--8~---------------|----------8---10---8--|--7~-----------4~---|-------------------|----------------------|--------------------|-------------------|----------------------|--------------------|-------------------|----------------------|--------------------|-------------------|----------------------|--------------------|
-------------------|-------------------|----------------------|--3~---------------|--8~---------------|----------8---10---8--|-------------------|-------------------|----------------------|-------------------|-------------------|----------------------|-------------------|-------------------|----------------------|-------------------|-------------------|----------------------|
--------------------|-------------------|----------------------------------|--7~-----------4~---|--3~---------------|----------------------------------|--------------------|-------------------|----------------------------------|--------------------|-------------------|----------------------------------|--------------------|-------------------|----------------------------------|--------------------|-------------------|--0-0-0-0-0-0-0-0-3-3-3-5-3-3-5h6-|
----------------------------------|----------------------------------|----------------------------------|----------------------------------|----------------------------------|----------------------------------|----------------------------------|----------------------------------|----------------------------------|----------------------------------|--0-0-0-0-0-0-0-0-3-3-3-5-3-3-5h6-|--0-0-0-0-0-0-0-0-3-3-3-5-3-3-5h6-|
----------------------------------|----------------------------------|----------------------------------|----------------------------------|----------------------------------|----------------------------------|----------------------------------|----------------------------------|------------------3-3-3-----------|----------------------------------|--0-0-0-0-0-0-0-0-------5-5-3-5h6-|--0-0-0-0-0-0-0-0-3-3-3-5-3-3-5h6-|
----------------------------------|----------------------------------|----------------------------------|----------------------------------|----------------------------------|----------------------------------|----------------------------------|----------------------------------|----------------------------------|----------------------------------|--0-0-0-0-0-0-0-0-3-3-3-5-3-3-5h6-|--0-0-0-0-0-0-0-0-3-3-3-5-3-3-5h6-|
----------------------------------|----------------------------------|----------------------------------|----------------------------------|----------------------------------|----------------------------------|----------------------------------|----------------------------------|------------------3-3-3-----------|----------------------------------|--0-0-0-0-0-0-0-0-------5-5-3-5h6-|--0-0-0-0-0-0-0-0-3-3-3-5-3-3-5h6-|
----------------------------------|----------------------------------|----------------------------------|----------------------------------|----------------------------------|----------------------------------|----------------------------------|----------------------------------|----------------------------------|----------------------------------|--0-0-0-0-0-0-0-0-3-3-3-5-3-3-5h6-|--0-0-0-0-0-0-0-0-3-3-3-5-3-3-5h6-|
----------------------------------|----------------------------------|----------------------------------|----------------------------------|----------------------------------|----------------------------------|----------------------------------|----------------------------------|------------------3-3-3-----------|----------------------------------|--0-0-0-0-0-0-0-0-------5-5-3-5h6-|--0-0-0-0-0-0-0-0-3-3-3-5-3-3-5h6-|
----------------------------------|----------------------------------|----------------------------------|----------------------------------|----------------------------------|----------------------------------|----------------------------------|----------------------------------|----------------------------------|----------------------------------|--0-0-0-0-0-0-0-0-3-3-3-5-3-3-5h6-|--0-0-0-0-0-0-0-0-3-3-3-5-3-3-5h6-|
----------------------------------|-------------------|----------------------|----------------------------------|--8~---------------|----------8---10---8--|----------------------------------|-------------------|----------------------|----------------------------------|-------------------|----------------------|------------------3-3-3-----------|-------------------|----------------------|--0-0-0-0-0-0-0-0-------5-5-3-5h6-|-------------------|----------------------|
--------------------|-------------------|-------------------|--7~-----------4~---|--3~---------------|--8~---------------|--------------------|-------------------|-------------------|--------------------|-------------------|-------------------|--------------------|-------------------|-------------------|--------------------|-------------------|-------------------|
----------------------|--------------------|-------------------||----------8---10---8--|--7~-----------4~---|--3~---------------||----------------------|--------------------|-------------------||----------------------|--------------------|-------------------||----------------------|--------------------|-------------------||----------------------|--------------------|-------------------||
Tabbed by Ed_Hunter
Tap to rate this tab
 
# A B C D E F G H I J K L M N O P Q R S T U V W X Y Z