Hammerfall - Legacy Of Kings tab

Hammerfall
Legacy of Kings
>>From the Album "Legacy of Kings"<<
Tabbed by M.Pohjalainen 

This is my first tab ever,
so if you happen to read it, please rate it!

Tune Guitar half step down

Tab explanation:
pm......|    =   Palm mute
    *        =   Pinch harmonic
   / \       =   Slide up/Slide down
   ///       =   Pick Scratch
    x        =   Ghost Note
    ^        =   Bend
    h        =   Hammer-on
    p        =   Pull-off
    tr       =   Thrill (Rapid hammer-on-pull-offs)
    +        =   Let ring
______________________________________________________



Intro (this riff has 2 guitars,
but I only tabbed it for 1.)

Play 2 times


|----------------------------------||----------------------------------||----------------------------------||--7----7--------------------------||--555555555555-1010887755-88775533||----------------------------------| pm .... ......
|----------------------------------||----------------------------------||----------------------------------||--3----3------------------9-10----||--111111111111-1010887755-7-8-----||----------------------------------| pm .... ......
Verse: play 2 times
|----------------------------------||----------------------------------||----------------------------------||--7----7--------------------------||--555555555555-1010887755-88775533||----------------------------------| pm .... ......
|----------------------------------||----------------------------------||----------------------------------||--7----7--------------------------||--555555555555-1010887755-88775533||----------------------------------| pm .... ......
|----------------------------------|\|----------------------------------| \|----------------------------------| \not|--3----3-------2+++4-5------------| /sure|--111111111111-0+++2-3------------| /|----------------------------------|/ pm .... ......
Pre-Chours (also not sure)
|----------------------------------||----------------------------------||----------------------------------||----------------------------------||--9----9-------7----7-------------||--777777777777-555555555555-------| pm .... ...... .... ......
|----------------------------------||----------------------------------||----------------------------------||----------------------------------||--5----5-------9-1112-11++14-12-11||--333333333333-7-9-10-9+++12-10-9-| pm .... ......
|----------------------------------||----------------------------------||----------------------------------||----------------------------------||--9----9-------7----7-------------||--777777777777-555555555555-------| pm .... ...... .... ......
|----------------------------------||----------------------------------||----------------------------------||----------------------------------||--5----5-------9++11+12++14++12+11||--333333333333-7++9++10++12++10+9-| pm .... ......
Chours: Play twice
|----------------------------------||----------------------------------||----------------------------------||--7+++++++++++++++++++++++++++++++||--5+++++++++++++++++++++++++++++++||----------------------------------| Leeeegacy of (Legacy of kings!)
|----------------------------------||----------------------------------||----------------------------------||----------------------------------||--10+8+++10-7---------------------||--8++6+++8--5---------------------| Forever to survive!
Repeat intro riff x2 Repeat verse twice Repeat Pre-chours Repeat chours twice Interlude: (Again I think it's 2 guitars)
|----------------------------------||----------------------------------||----------------------------------||--9------10-9-7-9-------7-12-10-9-||--777777---------777777-5-10-8--7-||----------------------------------| Pm ..... ......
|------------------------------------||------------------------------------||------------------------------------||--9------10-9-7-9-------------------||--777777---------777777-779910101212||------------------------------------| Pm ..... ...... ..... . . .
|----------------------------------||----------------------------------||----------------------------------||--9------10-9-7-9-------7-12-10-9-||--777777---------777777-5-10-8--7-||----------------------------------| Pm ..... ......
|----------------------------------||----------------------------------||----------------------------------||--5++++++-------------------------||--3++++++7++5-3-------------------||---------5++3-1-------------------|
|----------------------------------||----------------------------------||----------------------------------||--9------10-9-7-9-----------------||--777777---------777777-5-10-8-7--||----------------------------------| Pm ..... . . . ....... . . . .
|------------------------------------||------------------------------------||------------------------------------||--9------10-9-7-9-------------------||--777777---------777777-5577881010--||------------------------------------| Pm ..... . . . ....... ....... .
|----------------------------------||----------------------------------||----------------------------------||--9------10-9-7-9-----------------||--777777---------777777-5-10-8-7--||----------------------------------| Pm ..... . . . ....... . . . .
|----------------------------------||----------------------------------||----------------------------------||--5++-----------------------------||--3++7++5-------------------------||-----5++3-------------------------|
Rhytm on the first solo:
|----------------------------------||----------------------------------||----------------------------------||----9---7-------7-----------------||--9-7-7-5-7-7-7-5-7---------------||--7---5---5-9-5---5---------------|
Rhytm on the second solo:
|-----------------------------------||-----------------------------------||-----------------------------------||--9-7-9-12-7-9-7-9-12-7-9-7-9-7-5--||--7-5-7-10-5-7-5-7-10-5-7-5-7-5-3-7||----------------------------------5|
( The timing is not right on the solos I think) Chours2 play twice
|----------------------------------||----------------------------------||----------------------------------||--7-----------------7-7-7--5--7---||--5-----------------5-5-5--3--5---||----------------------------------|
Leeeeegacyyyy of (Legacy of kings!)
|----------------------------------||----------------------------------||----------------------------------||----------------------------------||--10+8+++10-7---------------------||--8++6+++8--5---------------------| Forever to survive!
Chours3 play tiwce
|----------------------------------||----------------------------------||----------------------------------||--10++++++++++++++++++++++++++++++||--8+++++++++++++++++++++++++++++++||----------------------------------| Leeeegacy of (Legacy of kings!)
|----------------------------------||----------------------------------||----------------------------------||----------------------------------||--13++11++13+10-------------------||--11++9+++11+8--------------------|
Play Intro twice End:
|----------------------------------||----------------------------------||----------------------------------||--7-----5-7-7-7-5-7---------------||--5--8--3-5-5-5-3-5---------------||-----6----------------------------|
Lyrics: verse: Out in the fields the full moon is rising Enlightens the name on our shields blessed with pride Steel on our side we're horsemen of thunder The ground starts to shake as we ride side by side Stormbringer led us into the unknown On wings of glory we will carry on Chours: Legacy Of, LEGACY OF KINGS forever to surrvive, we're Riding on the, RIDING ON THE WINDS unchained and free, alive forevermore Verse: Deep in the night we circle around them The honor compels us to fight all for one All hewed with steel in the toil of the battle Our enemies fate will reveal and be sealed The chill of the wind keeps on calling our names there's no turning back now, keep hold of the flame Chours: Legacy Of, LEGACY OF KINGS forever to surrvive, we're Riding on the, RIDING ON THE WINDS unchained and free, alive forevermore Interlude: Now we are here and there is nothing left to fear The secrets of steel the path of glory will reveal Chours: Legacy Of, LEGACY OF KINGS forever to surrvive, we're Riding on the, RIDING ON THE WINDS unchained and free, alive forevermore
Tap to rate this tab
 
# A B C D E F G H I J K L M N O P Q R S T U V W X Y Z