Hammerfall - Way Of The Warrior tab

Gtr I (Eb Ab Db Gb Bb Eb) - 'Stefan'
Gtr II (Eb Ab Db Gb Bb Eb) - 'Oscar'



Gtr I|-------------------------|---------------------------||-5p0h5p0h5p0h7p0h7p0h7p0h|=8p0h10p0h7p0h8p0h10p0h7p0h||-------------------------|---------------------------||-------------------------|---------------------------||-------------------------|---------------------------||-------------------------|---------------------------|
|--------------------------||-5p0h5p0h5p0h7p0h7p0h7p0h=||--------------------------||--------------------------||--------------------------||--------------------------|
|---------------------------|-5p0h5p0h5p0h7p0h7p0h7p0h||-8p0h10p0h7p0h8p0h10p0h7p0-|-------------------------||---------------------------|-------------------------||---------------------------|-------------------------||---------------------------|-------------------------||---------------------------|-------------------------|
|-8p0h10p0h7p0h8p0h10p0h7p0h==||-----------------------------||-----------------------------||-----------------------------||-----------------------------||-----------------------------|
|-5p0h5p0h5p0h7p0h7p0h7p0h|=8p0h10p0h7p0h8p0h10p0h7p0-||-------------------------|---------------------------||-------------------------|---------------------------||-------------------------|---------------------------||-------------------------|---------------------------||-------------------------|---------------------------|
---------------------------||-5p0h5p0h5p0h7p0h7p0h7p0h==||---------------------------||---------------------------||---------------------------||---------------------------|
|----------------------------||--8p0h10p0h7p0h8p0h10p0h7p0h||----------------------------||----------------------------||----------------------------||----------------------------|
|--------------------------|-----------------------------||--5p0h5p0h5p0h7p0h7p0h7p0h|==8p0h10p0h7p0h8p0h10p0h7p0--||--------------------------|-----------------------------||--------------------------|-----------------------------||--------------------------|-----------------------------||--------------------------|-----------------------------|
|-5p0h5p0h5p0h7p0h7p0h7p0h|==8p0h10p0h7p0h8p0h10p0h7p0h||-------------------------|----------------------------||-------------------------|----------------------------||-------------------------|----------------------------||-------------------------|----------------------------||-------------------------|----------------------------|
|-5p0h5p0h5p0h7p0h7p0h7p0h==||---------------------------||---------------------------||---------------------------||---------------------------||---------------------------|
|-8p0h10p0h7p0h8p0h10p0h7p0-|-------------------------||---------------------------|-5p0h5p0h5p0h7p0h7p0h7p0h||---------------------------|-------------------------||---------------------------|-------------------------||---------------------------|-------------------------||---------------------------|-------------------------|
| | Gtr II | PM--------------------| PM--| PM--| |
|---------------------------|-------------------------||---------------------------|-------------------------||---------------------------|-------------------------||---------------------------|-2-----------2-----------||-3----5---2---3----5---2---|-2-----------2-----------||---------------------------|-0---0---0---0---0---0---|
S S S S S S S S S S S S|-----------------------------||-8p0h10p0h7p0h8p0h10p0h7p0h==||-----------------------------||-----------------------------||-----------------------------||-----------------------------|
| | PM---------------| |
|-----------------------------||-----------------------------||-----------------------------||-2---------------------------||-2---------------------------||-0----0---0---3----5---2-----|
|-------------------------|---------------------------||-5p0h5p0h5p0h7p0h7p0h7p0h|=8p0h10p0h7p0h8p0h10p0h7p0-||-------------------------|---------------------------||-------------------------|---------------------------||-------------------------|---------------------------||-------------------------|---------------------------|
| | PM--| PM--| PM---------------| |
|-------------------------|---------------------------||-------------------------|---------------------------||-------------------------|---------------------------||-2-----------2-----------|-2-------------------------||-2-----------2-----------|-2-------------------------||-0---0---0---0---0---0---|-0----0---0---3----5---2---|
|-5p0h5p0h5p0h7p0h7p0h7p0h==||---------------------------||---------------------------||---------------------------||---------------------------||---------------------------|
| | PM--| PM--| |
|---------------------------||---------------------------||-2-----------2-------------||-2-----------2-------------||-0---0---0---0---0---0-----||---------------------------|
|-8p0h10p0h7p0h8p0h10p0h7p0h|=5p0h5p0h5p0h7p0h7p0h7p0h||---------------------------|-------------------------||---------------------------|-------------------------||---------------------------|-------------------------||---------------------------|-------------------------||---------------------------|-------------------------|
| | PM---------------| PM--| PM------- |
|---------------------------|-------------------------||---------------------------|-------------------------||-2-------------------------|-2-----------2-----------||-2-------------------------|-2-----------2-----------||-0----0---0---3----5---2---|-0---0---0---0---0---0---||---------------------------|-------------------------|
|-8p0h10p0h7p0h8p0h10p0h7p0--|||----------------------------|||----------------------------|||----------------------------|||----------------------------|||----------------------------||
| |-----------------------| |
|----------------------------|||----------------------------|||----------------------------|||----------------------------|||-3----5---2---3----5---2----|||----------------------------||
1st Verse Gtr II PM| PM------------------| PM| PM|
|--------------|-----------------|--------------||--------------|-----------------|--------------||--------------|-----------------|--------------||-9------9-----|--9--7----7------|-9------9-----||-7--7-7-7-7-7-|-------10---10-9-|-7--7-7-7-7-7-||--------------|-----------------|--------------|
PM| PM------------------|
|-------------|--------------|-----------------||-------------|--------------|-----------------||-------------|--------------|-----------------||-9---10-7----|-9------9-----|--9--7----7------||-------------|-7--7-7-7-7-7-|-------10---10-9-||-------------|--------------|-----------------|
PM| PM| PM| PM--- E E E E E E Q E Q. E E E E E E|--------------|-------------|--------------||--------------|-------------|--------------||--------------|-------------|--------------||-9------9-----|-9---10-7----|-9------9-----||-7--7-7-7-7-7-|-------------|-7--7-7-7-7-7-||--------------|-------------|--------------|
|-----------------|--------------|-------------||-----------------|--------------|-------------||-----------------|--------------|-------------||--9--7----7------|-9------9-----|-9---10-7----||-------10---10-9-|-7--7-7-7-7-7-|-------------||-----------------|--------------|-------------|
PM| PM------------------| PM| PM|
|--------------|-----------------|--------------||--------------|-----------------|--------------||--------------|-----------------|--------------||-9------9-----|--9--7----7------|-9------9-----||-7--7-7-7-7-7-|-------10---10-9-|-7--7-7-7-7-7-||--------------|-----------------|--------------|
Gtr II
|-------------||--------------|--------------||-------------||--------------|--------------||-------------||--------------|--------------||-9---10-7----||--------------|--------------||-------------||-------10---9-|-------10---9-||-------------||-7-7-7--7-7-7-|-7-7-7--7-7-7-|
PM--| PM PM--| PM PM--| PM
|--------------|---------|---------|--------------|--------------|-------||--------------|---------|---------|--------------|--------------|-------||--------------|---------|---------|--------------|--------------|-------||--------------|-5-------|-2-------|--------------|--------------|-5-----||-------10---9-|-5-------|-2-------|-------10---9-|-------10---9-|-5-----||-7-7-7--7-7-7-|-3-------|-0-------|-7-7-7--7-7-7-|-7-7-7--7-7-7-|-3-----|
Chorus
|---------||------------|----------|------------|-----------|-------------||---------||------------|----------|------------|-----------|-------------||-2-------||-9-9-7-9----|----------|-9-9-7-9----|-5----7----|-9-9-7-9-----||-2-------||-9-9-7-9----|----------|-9-9-7-9----|-5----7----|-9-9-7-9-----||-0-------||-7-7-5-7----|----------|-7-7-5-7----|-3----5----|-7-7-5-7-----||---------||------------|----------|------------|-----------|-------------|
|--------|---------|---------|------------|----------|-------------||--------|---------|---------|------------|----------|-------------||--------|---------|-7-------|-9-9-7-9----|----------|-9-9-7-9-----||--------|-7-------|-7-------|-9-9-7-9----|----------|-9-9-7-9-----||--------|-7-------|-5-------|-7-7-5-7----|----------|-7-7-5-7-----||--------|-5-------|---------|------------|----------|-------------|
|-----------|------------|----------|---------|------------|||-----------|------------|----------|---------|------------|||-5----7----|-9-9-7-9----|----------|-7-------|------------|||-5----7----|-9-9-7-9----|----------|-7-------|-7----5-----|||-3----5----|-7-7-5-7----|----------|-5-------|-7----5-----|||-----------|------------|----------|---------|-5----3-----||
Guitar break Gtr II
Gtr I S S S S S S S S S S S S S S S S S S S S S S S S|-------------------------|---------------------------||-5p0h5p0h5p0h7p0h7p0h7p0h|=8p0h10p0h7p0h8p0h10p0h7p0h||-------------------------|---------------------------||-------------------------|---------------------------||-------------------------|---------------------------||-------------------------|---------------------------|
S S S S S S S S S S S S|--------------------------||-5p0h5p0h5p0h7p0h7p0h7p0--||--------------------------||--------------------------||--------------------------||--------------------------|
|---------------------------|-5p0h5p0h5p0h7p0h7p0h7p0h||-8p0h10p0h7p0h8p0h10p0h7p0-|-------------------------||---------------------------|-------------------------||---------------------------|-------------------------||---------------------------|-------------------------||---------------------------|-------------------------|
|--8p0h10p0h7p0h8p0h10p0h7p0h==||------------------------------||------------------------------||------------------------------||------------------------------||------------------------------|
|-5p0h5p0h5p0h7p0h7p0h7p0h|=8p0h10p0h7p0h8p0h10p0h7p0-|||-------------------------|---------------------------|||-------------------------|---------------------------|||-------------------------|---------------------------|||-------------------------|---------------------------|||-------------------------|---------------------------||
2nd Verse PM| PM------------------|
E E E E E E E E E E E E|--------------|-----------------||--------------|-----------------||--------------|-----------------||-9------9-----|--9--7----7------||-7--7-7-7-7-7-|-------10---10-9-||--------------|-----------------|
PM| PM| PM| PM--- E E E E E E Q E Q. E E E E E E|--------------|-------------|--------------||--------------|-------------|--------------||--------------|-------------|--------------||-9------9-----|-9---10-7----|-9------9-----||-7--7-7-7-7-7-|-------------|-7--7-7-7-7-7-||--------------|-------------|--------------|
---------------| PM| PM|
E E E E E E E E E E E E Q E Q.|-----------------|--------------|-------------||-----------------|--------------|-------------||-----------------|--------------|-------------||--9--7----7------|-9------9-----|-9---10-7----||-------10---10-9-|-7--7-7-7-7-7-|-------------||-----------------|--------------|-------------|
PM| PM------------------| PM| PM| E E E E E E E E E E E E E E E E E E|--------------|-----------------|--------------||--------------|-----------------|--------------||--------------|-----------------|--------------||-9------9-----|--9--7----7------|-9------9-----||-7--7-7-7-7-7-|-------10---10-9-|-7--7-7-7-7-7-||--------------|-----------------|--------------|
PM| PM------------------|
Q E Q. E E E E E E E E E E E E|-------------|--------------|-----------------||-------------|--------------|-----------------||-------------|--------------|-----------------||-9---10-7----|-9------9-----|--9--7----7------||-------------|-7--7-7-7-7-7-|-------10---10-9-||-------------|--------------|-----------------|
Bridge
PM| PM| PM| PM E E E E E E Q E Q. E E E E E E|--------------|-------------||--------------||--------------|-------------||--------------||--------------|-------------||--------------||-9------9-----|-9---10-7----||--------------||-7--7-7-7-7-7-|-------------||-9-----10---9-||--------------|-------------||-7-7-7--7-7-7-|
PM--| PM PM--| PM
|--------------|--------------|-------||--------------|--------------|-------||--------------|--------------|-------||--------------|--------------|-5-----||-------10---9-|-------10---9-|-5-----||-7-7-7--7-7-7-|-7-7-7--7-7-7-|-3-----|
Chorus Gtr II PM--| PM PM--| PM|---------|--------------|--------------|---------|---------||------------||---------|--------------|--------------|---------|---------||------------||---------|--------------|--------------|---------|---------||-9-9-7-9----||-2-------|--------------|--------------|-5-------|-7-------||-9-9-7-9----||-2-------|-------10---9-|-------10---9-|-5-------|-7-------||-7-7-5-7----||-0-------|-7-7-7--7-7-7-|-7-7-7--7-7-7-|-3-------|-5-------||------------|
|--------|------------|-----------|------------|--------|-------||--------|------------|-----------|------------|--------|-------||--------|-9-9-7-9----|-5----7----|-9-9-7-9----|--------|-------||--------|-9-9-7-9----|-5----7----|-9-9-7-9----|--------|-7-----||--------|-7-7-5-7----|-3----5----|-7-7-5-7----|--------|-7-----||--------|------------|-----------|------------|--------|-5-----|
|---------|------------|----------|------------|-----------|-------------||---------|------------|----------|------------|-----------|-------------||-7-------|-9-9-7-9----|----------|-9-9-7-9----|-5----7----|-9-9-7-9-----||-7-------|-9-9-7-9----|----------|-9-9-7-9----|-5----7----|-9-9-7-9-----||-5-------|-7-7-5-7----|----------|-7-7-5-7----|-3----5----|-7-7-5-7-----||---------|------------|----------|------------|-----------|-------------|
Gtr I ~~~|--------|---------|-----------|---------|----------|----------------|||--------|---------|-----------|---------|----------|----------------|||--------|---------|-----------|---------|----------|-13-------------|||--------|---------|-----------|---------|----------|----------------|||--------|---------|-----------|---------|----------|----------------|||--------|---------|-----------|---------|----------|----------------||
| | Gtr II | PM| PM| |
|--------|---------|-----------|---------|----------|----------------|||--------|---------|-----------|---------|----------|----------------|||--------|-7-------|-----------|---------|----------|--6------6------|||--------|-7-------|-7----5----|-2-------|----------|--6------6------|||--------|-5-------|-7----5----|-2-------|----------|--4--4-4-4-4-4--|||--------|---------|-5----3----|-0-------|----------|----------------||
Guitar solo
|--------------------|-------------------|--------------------||--------------------|-------------------|--------------------||-(13)---11----11-13-|-13-11----11-------|--------------------||-----------14-------|-------14----14-13-|-14--13-11-13-11----||--------------------|-------------------|-----------------14-||--------------------|-------------------|--------------------|
| | PM---------| PM---------| |
|--------------------|-------------------|--------------------||--------------------|-------------------|--------------------||---6----------------|--6----------------|--------------------||---6----------------|--6----------------|--7-----------------||---4--4--4--4--6--7-|--4--4--4--4--6--7-|--7-----------------||--------------------|-------------------|--5-----------------|
|-----------------|---------------|-------------11-12-||-----------------|-14------------|-(14)-----14-19-21-||--------------13-|-21------------|-(21)-----21-------||-11-----11-14----|---------------|-------------------||-----------------|---------------|-------------------||-----------------|---------------|-------------------|
| | | PM| PM| PM--------| |
|-----------------|---------------|-------------------||-----------------|---------------|-------------------||-----------------|--6------6-----|---6---------------||--4--------------|--6------6-----|---6---------------||--4--------------|--4--4-4-4-4-4-|---4--4-4--4--6--7-||--2--------------|---------------|-------------------|
|-12--11----11-------|-14-----(11)-12p11-|----------------||-21--19-14-19-14-12-|-16-----(19)-21p19-|-14-------14s17-||--------21----21-20-|-------------------|-21-------------||--------------------|-------------------|----------------||--------------------|-------------------|----------------||--------------------|-------------------|----------------|| E E E E E E H +E S S H Q
| | PM| PM| |
|--------------------|-------------------|----------------||--------------------|-------------------|----------------||--------------------|--4----------------|--6-----6-------||--7-----------------|--4----------------|--6-----6-------||--7-----------------|--2----------------|--4-4-4-4--4--4-||--5-----------------|-------------------|----------------|
|-16-------------|-19-14----17-14----|-16--------14---------||----------14-17-|-------17-------14-|-----14-17----12-16---||----------------|-------------------|----------------------||----------------|-------------------|----------------------||----------------|-------------------|----------------------||----------------|-------------------|----------------------|
| | PM-------| PM---------| |
|----------------|-------------------|----------------------||----------------|-------------------|----------------------||--6-------------|--6----------------|----------------------||--6-------------|--6----------------|--7-------------------||--4-4-4-4--6--7-|--4--4--4--4--6--7-|--7-------------------||----------------|-------------------|--5-------------------|
|-14-------|-14b16r==(14)---14b16==(14)-|-(14)r-------------||----------|----------------------------|-------------14-17-||----------|----------------------------|-------------------||----------|----------------------------|-------------------||----------|----------------------------|-------------------||----------|----------------------------|-------------------|
| | PM| PM----| PM-------| |
|----------|----------------------------|-------------------||----------|----------------------------|-------------------||----------|--6-----------6-------------|---6---------------||--4-------|--6-----------6-------------|---6---------------||--4-------|--4----4---4--4--4-------4--|---4---4-4-4--6--7-||--2-------|----------------------------|-------------------|
|-19h21p19h21p17h19p17h19p16h17p16h17-|-----------------------||-------------------------------------|-17h19p17--------------||-------------------------------------|----------19b21r(19)---||-------------------------------------|-----------------------||-------------------------------------|-----------------------||-------------------------------------|-----------------------|
| |
|-------------------------------------|-----------------------||-------------------------------------|-----------------------||-------------------------------------|--4--------------------||--7----------------------------------|--4--------------------||--7----------------------------------|--2--------------------||--5----------------------------------|-----------------------|
A5 G5 D5 Gtr II
|--------------------|--------------------|--------------------||-17--------------17-|-15-----------------|-18-----------18----||-----17-------------|-----16----------19-|-----19----19----19-||--------19----19----|--------17----17----|--------19----------||-----------19-------|-----------17-------|--------------------||--------------------|--------------------|--------------------|
C5 G5 A5 G5
|---------------------|--------------------|--------------------||-17--------15--------|-17--------------17-|-15-----------------||-----17--------16----|-----17-------------|-----16----------16-||--------19--------17-|--------19----19----|--------17----17----||---------------------|-----------19-------|-----------17-------||---------------------|--------------------|--------------------|
C5 F5 A5
|---------------------|-----------------|||---------------------|-----------------|||-17------------------|-17--21-19-17----|||-----19--------22-21-|-19--22-21-19----|||--------19-20--------|-----------------|||---------------------|-----------------|| E E E Q.
Break
|------------|------------|------------|-----------||------------|------------|------------|-----------||------------|------------|-7-----7----|-5---------||-------7----|-------2----|-7-----7----|-5----5----||-7-----7----|-2-----2----|-5-5-5-5----|-3----5----||-5-5-5-5----|-0-0-0-0----|------------|------3----|
Gtr II PM| PM| PM| PM| PM|
|------------|------------|-----------|------------|------------|------------||------------|------------|-----------|------------|------------|------------||------------|------------|-5---------|------------|------------|------------||-------7----|-------2----|-5----5----|-------7----|-------7----|-------2----||-7-----7----|-2-----2----|-3----5----|-7-----7----|-7-----7----|-2-----2----||-5-5-5-5----|-0-0-0-0----|------3----|-5-5-5-5----|-5-5-5-5----|-0-0-0-0----|
PM| PM| PM| PM| E E E Q. Q. Q. E E E Q. E E E Q. Q. Q. E E E Q.|------------|-----------|------------|------------|-----------|------------||------------|-----------|------------|------------|-----------|------------||-7-----7----|-5---------|------------|------------|-5---------|------------||-7-----7----|-5----5----|-------7----|-------2----|-5----5----|-------7----||-5-5-5-5----|-3----5----|-7-----7----|-2-----2----|-3----5----|-7-----7----||------------|------3----|-5-5-5-5----|-0-0-0-0----|------3----|-5-5-5-5----|
A5 G5 D5 Gtr II
|--------------------|--------------------|--------------------||-17--------------17-|-15-----------------|-18-----------18----||-----17-------------|-----16----------19-|-----19----19----19-||--------19----19----|--------17----17----|--------19----------||-----------19-------|-----------17-------|--------------------||--------------------|--------------------|--------------------|
C5(type 2)G5 A5 G5
|---------------------|--------------------|--------------------||-17--------15--------|-17--------------17-|-15-----------------||-----17--------16----|-----17-------------|-----16----------16-||--------19--------17-|--------19----19----|--------17----17----||---------------------|-----------19-------|-----------17-------||---------------------|--------------------|--------------------|
C5(type 2)F5(type 2) A5
|---------------------|-----------------|--------------------||---------------------|-----------------|-17--------------17-||-17------------17-16-|-14--17-16-14----|-----17-------------||-----19----15--------|-----------------|--------19----19----||--------19-----------|-----------------|-----------19-------||---------------------|-----------------|--------------------|
G5 D5(type 3) C5(type 2)G5
|--------------------|--------------------|---------------------||-15--------------15-|-18-----------18----|-17--------15--------||-----16-------------|-----19----19----19-|-----17--------16----||--------17----17----|--------19----------|--------19--------17-||-----------17-------|--------------------|---------------------||--------------------|--------------------|---------------------|
A5(type 2) G5 C5(type 2)F5(type 2)
|--------------------|--------------------|---------------------||-17--------------17-|-15-----------------|---------------------||-----17-------------|-----16----------16-|-17------------17-16-||--------19----19----|--------17----17----|-----19----15--------||-----------19-------|-----------17-------|--------19-----------||--------------------|--------------------|---------------------|
A5(type 2) C5(type 2)F5(type 2) A5(type 2)
|-----------------|---------------------|-----------------|||-----------------|-13------------------|-13-----17-22----|||-14--17-16-14----|-----14--------17-16-|-14--17-19-17----|||-----------------|--------14-15--------|-----22-21-19----|||-----------------|---------------------|-----------------|||-----------------|---------------------|-----------------|| E E E Q.
3rd Verse E5(type 2) C5(type 2)
PM| PM------------------| PM| PM| E E E E E E E E E E E E E E E E E E|--------------|-----------------|--------------||--------------|-----------------|--------------||--------------|-----------------|--------------||-9------9-----|--9--7----7------|-9------9-----||-7--7-7-7-7-7-|-------10---10-9-|-7--7-7-7-7-7-||--------------|-----------------|--------------|
D5(type 3) E5(type 2) PM| PM------------------|
|-------------|--------------|-----------------||-------------|--------------|-----------------||-------------|--------------|-----------------||-9---10-7----|-9------9-----|--9--7----7------||-------------|-7--7-7-7-7-7-|-------10---10-9-||-------------|--------------|-----------------|
C5(type 2) D5 E5(type 2) PM| PM| PM| PM---
|--------------|-------------|--------------||--------------|-------------|--------------||--------------|-------------|--------------||-9------9-----|-9---10-7----|-9------9-----||-7--7-7-7-7-7-|-------------|-7--7-7-7-7-7-||--------------|-------------|--------------|
C5(type 2) D5 ---------------| PM| PM|
|-----------------|--------------|-------------||-----------------|--------------|-------------||-----------------|--------------|-------------||--9--7----7------|-9------9-----|-9---10-7----||-------10---10-9-|-7--7-7-7-7-7-|-------------||-----------------|--------------|-------------|
E5(type 3) C5(type 2) PM| PM------------------| PM| PM|
|--------------|-----------------|--------------||--------------|-----------------|--------------||--------------|-----------------|--------------||-9------9-----|--9--7----7------|-9------9-----||-7--7-7-7-7-7-|-------10---10-9-|-7--7-7-7-7-7-||--------------|-----------------|--------------|
Bridge D5(type 3)
PM--| PM PM--| PM Q E Q. E E E E E E E E E E E E|-------------||--------------|--------------||-------------||--------------|--------------||-------------||--------------|--------------||-9---10-7----||--------------|--------------||-------------||-------10---9-|-------10---9-||-------------||-7-7-7--7-7-7-|-7-7-7--7-7-7-|
Gtr II PM--| PM PM--| PM PM--| PM
|--------------|---------|---------|--------------|--------------|-------||--------------|---------|---------|--------------|--------------|-------||--------------|---------|---------|--------------|--------------|-------||--------------|-5-------|-2-------|--------------|--------------|-5-----||-------10---9-|-5-------|-2-------|-------10---9-|-------10---9-|-5-----||-7-7-7--7-7-7-|-3-------|-0-------|-7-7-7--7-7-7-|-7-7-7--7-7-7-|-3-----|
PM--| PM PM--| PM PM--| PM
|---------|--------------|--------------|--------------|---------|-------||---------|--------------|--------------|--------------|---------|-------||---------|--------------|--------------|--------------|---------|-------||-7-------|--------------|--------------|--------------|-5-------|-2-----||-7-------|-------10---9-|-------10---9-|-------10---9-|-5-------|-2-----||-5-------|-7-7-7--7-7-7-|-7-7-7--7-7-7-|-7-7-7--7-7-7-|-3-------|-0-----|
Chorus PM--| PM PM--| PM
|--------------|--------------|---------|---------||------------|------||--------------|--------------|---------|---------||------------|------||--------------|--------------|---------|---------||-9-9-7-9----|------||--------------|--------------|-5-------|-7-------||-9-9-7-9----|------||-------10---9-|-------10---9-|-5-------|-7-------||-7-7-5-7----|------||-7-7-7--7-7-7-|-7-7-7--7-7-7-|-3-------|-5-------||------------|------|
|------------|-----------|------------|--------|---------|-------||------------|-----------|------------|--------|---------|-------||-9-9-7-9----|-5----7----|-9-9-7-9----|--------|---------|-7-----||-9-9-7-9----|-5----7----|-9-9-7-9----|--------|-7-------|-7-----||-7-7-5-7----|-3----5----|-7-7-5-7----|--------|-7-------|-5-----||------------|-----------|------------|--------|-5-------|-------|
|------------|----------|------------|-----------|------------|------||------------|----------|------------|-----------|------------|------||-9-9-7-9----|----------|-9-9-7-9----|-5----7----|-9-9-7-9----|------||-9-9-7-9----|----------|-9-9-7-9----|-5----7----|-9-9-7-9----|------||-7-7-5-7----|----------|-7-7-5-7----|-3----5----|-7-7-5-7----|------||------------|----------|------------|-----------|------------|------|
|---------|-----------|------------|-------------|------------|-----------||---------|-----------|------------|-------------|------------|-----------||-7-------|-----------|-9-9-7-9----|-12----11----|-9-9-7-9----|-5----7----||-7-------|-7----5----|-9-9-7-9----|-12----11----|-9-9-7-9----|-5----7----||-5-------|-7----5----|-7-7-5-7----|-10-----9----|-7-7-5-7----|-3----5----||---------|-5----3----|------------|-------------|------------|-----------|
|------------|------------|---------|---------|------------|-------------||------------|------------|---------|---------|------------|-------------||-9-9-7-9----|-12----9----|---------|-7-------|-9-9-7-9----|-12----11----||-9-9-7-9----|-12----9----|-7-------|-7-------|-9-9-7-9----|-12----11----||-7-7-5-7----|-10----7----|-7-------|-5-------|-7-7-5-7----|-10-----9----||------------|------------|-5-------|---------|------------|-------------|
|------------|-----------|------------|------------|---------|-----------|||------------|-----------|------------|------------|---------|-----------|||-9-9-7-9----|-5----7----|-9-9-7-9----|-12----9----|-7-------|-----------|||-9-9-7-9----|-5----7----|-9-9-7-9----|-12----9----|-7-------|-7----5----|||-7-7-5-7----|-3----5----|-7-7-5-7----|-10----7----|-5-------|-7----5----|||------------|-----------|------------|------------|---------|-5----3----||
Outro E5 G A F# Gtr I
|-------------------------|----------------------------||-5p0h5p0h5p0h7p0h7p0h7p0h|==8p0h10p0h7p0h8p0h10p0h7p0h||-------------------------|----------------------------||-------------------------|----------------------------||-------------------------|----------------------------||-------------------------|----------------------------|
E5
|---------------------------||-5p0h5p0h5p0h7p0h7p0h7p0h==||---------------------------||---------------------------||---------------------------||---------------------------|
G A F# G A F# E5(tD5E5(type 4)
|---------------------------|------------*||-8p0h10p0h7p0h8p0h10p0h7p0-|------------*||---------------------------|-9-9-7-9----*||---------------------------|-9-9-7-9----*||---------------------------|-7-7-5-7----*||---------------------------|-0-0-0-0----*|
Tablature Legend ---------------- h - hammer-on p - pull-off b - bend r - bend release (if no number after the r, then release immediately) /\ - slide into or out of (from/to "nowhere") s - legato slide S - shift slide
Tap to rate this tab
 
# A B C D E F G H I J K L M N O P Q R S T U V W X Y Z