Hammerfall - Raise The Hammer tab

By Death _E.T.

|---------------------------------------------------------||-------------------------------------------------------8-||--7-000-8-000-10-000-8-7------7-000-8-000-10-000-7-8-10--||------------------------10-8-----------------------------||---------------------------------------------------------||---------------------------------------------------------|
|---------------------------------------------------------------||---------------------------------------------------------------||--7-000-8-000-10-000-8-7------7-000-8-000-10-000-8-7-----------||------------------------10-8------------------------10-8-7-----||----------------------------------------------------------10-9-||---------------------------------------------------------------|
|---------------------------------------------------------||-------------------------------------------------------8-||--7-000-8-000-10-000-8-7------7-000-8-000-10-000-7-8-10--||------------------------10-8-----------------------------||---------------------------------------------------------||---------------------------------------------------------|
|---------------------------------------------------------------||---------------------------------------------------------------||--7-000-8-000-10-000-8-7------7-000-8-000-10-000-8-7-----------||------------------------10-8------------------------10-8-7-----||----------------------------------------------------------10-9-||---------------------------------------------------------------|
|-----------------------------------------||-----------------------------------------||--8-7-------------8-7--------------------||-----10-8-7----------10-8-7--------------||-----------10-9------------10-9--10---10-|
|---------------------------------------------------------------------------||---------------------------------------------------------------------------||-------------------------------------------------------------------------17||--17----19------19--20-19--20-19-17--------17-17-----17-19-20-20-17-19-20--||------17------17---------------------17---------17-17----------------------||------------------------------------------------15-15----------------------|
|------------------------------------------------------------------------||------------------------------------------------------------------------||-19--17-19-17-------19-----17---17------------------------------19~-----||-------------20--19----------20--------20--19-20-19-17--------17----17--||--------------------------------------------------------20--------------||------------------------------------------------------------------------|
|---------------------------------------------------------------------||------------20-------------------------------------------------------||----------19--19--------------17-19~----20----20--20--19--17--19-----||--17-19-20------20-19-17-19-20-----------------------------------20--||---------------------------------------------------------------------||---------------------------------------------------------------------|
|---------------------------------------------------------------------------||--------------------------------------18-20-20-18-17-----------------------||------17--19--17----17--17--------------------------19-17------------------||--20------------------------20--19-----------------------20-19-17----------||-----------------------------------------------------------------20-19-17--||---------------------------------------------------------------------------|
|---------------------------------------------------------------------------||---------------------------------------------------------------------------||--14----14-16-17-17-16-14--14----14-16--17-16-14---------------------------||-----14-----------------------14----------------17-15-14-17-15-14----------||-----------------------------------------------------------------17-15-14--||---------------------------------------------------------------------------|
|--------------------------19~----19-17-19--19~----19-17----17--||---------------------------------------------------------------||--------------------------16~----16-14-16--16~----16-14----14--||--14----14-16-17-14-16-----------------------------------------||-----14----------------17--------------------------------------||---------------------------------------------------------------||---------------------------------------------------------------|
|--12-13-15-13-12------------------------------------------------------------||----------------15-13-12-15-13-12-------------------------------------------||---------------------------------14-12------14--14-16-17-17-16-14-14--14-16-||--------------------------------------15------14--------------------14------||----------------------------------------------------------------------------||----------------------------------------------------------------------------|
|-----------------------------------------------------------------------------------||-----------------------------------------------------------------------------------||-17-16-14--------------------------------------------------------------------------||---------17-15-14-17-15-14----------------------------------------------20~20-17-17||--------------------------17-15-14--14--14-16-17-14-16-17-20~19-17-20~20~----------||--------------------------------------14-------------------------------------------|
|---------------------------------------------------------||-------------------------------------------------------8-||--7-000-8-000-10-000-8-7------7-000-8-000-10-000-7-8-10--||------------------------10-8-----------------------------||---------------------------------------------------------||---------------------------------------------------------|
|---------------------------------------------------------------||---------------------------------------------------------------||--7-000-8-000-10-000-8-7------7-000-8-000-10-000-8-7-----------||------------------------10-8------------------------10-8-7-----||----------------------------------------------------------10-9-||---------------------------------------------------------------|
|---------------------------------------------------------------------------||---------------------------------------------------------------------------||-------------------------------------------------------------------------17||--17----19------19--20-19--20-19-17--------17-17-----17-19-20-20-17-19-20--||------17------17---------------------17---------17-17----------------------||------------------------------------------------15-15----------------------|
|------------------------------------------------------------------------------||------------------------18----------------------------------------------------||-19--17-19-17-------19-----19--17-15-17-15--15--------------------------------||-------------20--19-----------------------19--19-17-19-17----15------19~19~19~||-------------------------------------------------------------------17---------||------------------------------------------------------------------------------|
|--------------------------------------------------18-17-15--15-15--||---------------------------------16-15-13-16-15-13--------18-------||----------------14-15-14--15-14------------------------------------||--17-15-17----17--------17-----17----------------------------------||-------------------------------------------------------------------||-------------------------------------------------------------------|
|-----------------------------------------------------------||-----------------------------------------------------------||--20--20-20-19-17-19---------17-19-17----17-17-------------||---------------------20----20------------------20-19---19--||-----------------------------------------------------------||-----------------------------------------------------------|
|-------17------------------------------------------------------||--18-20--20-18-17----------------------------------------------||-----------------19-17------------------14--14-16-17-17-16-14--||----------------------20-19-17------------14-------------------||------------------------------20-19-17-------------------------||---------------------------------------------------------------|
|-----------------------------------------------------------------------||-----------------------------------------------------------------------||--14--14-16--17-16-14---------------------------14--14-16-17-14-16-17--||----14---------------17-15-14-17-15-14------------14-------------------||--------------------------------------17-15-14-------------------------||-----------------------------------------------------------------------|
|-19~----19-17-19--19~----19-17----17----12-13-15-13-12--------------------------||------------------------------------------------------15-13-12-15-13-12---------||-16~----16-14-16--16~----16-14----14-----------------------------------14-12----||-----------------------------------------------------------------------------15-||--------------------------------------------------------------------------------||--------------------------------------------------------------------------------|
|---------------------------------------------------------------------||---------------------------------------------------------------------||-14--14-16-17-17-16-14-14--14-16--17-16-14---------------------------||---14--------------------14---------------17-15-14-17-15-14----------||-----------------------------------------------------------17-15-14--||---------------------------------------------------------------------|
|------------------------------------------------------||----------------------------------------20~-20-17-17--||--14--14-16-17-14-16-17-20~----19-17-20~--------------||----14------------------------------------------------||------------------------------------------------------||------------------------------------------------------|
|----------9--------------------------------9--------------------||--10----10-12-10-9-----9-12-10-9-10------10-12-10-9-----9-10-12-||----11------------9----------------11--------------9------------||----------------------------------------------------------------||----------------------------------------------------------------||----------------------------------------------------------------|
|----------------------------9-9----------------------------------------------||-10-10-----------------10-10---12-12-10-10-9-9-----------9-9-12-12-10-10-9-9-||------11-11-11-11-11-11-----------------------9-9-9-9-9-9--------------------||-----------------------------------------------------------------------------||-----------------------------------------------------------------------------||-----------------------------------------------------------------------------|
|----------------------------9-9------------------------------------------------||-10-10-----------------10-10---12-12-10-10-9-9-----------9-9-10-10-12-12-12-12-||------11-11-11-11-11-11-----------------------9-9-9-9-9-9----------------------||-------------------------------------------------------------------------------||-------------------------------------------------------------------------------||-------------------------------------------------------------------------------|
|-9-9-----------------9-9-12-12-10-10-9-9-----------------------10-10-9-9------||----10-10-10-10-10-10-------------------12-12-9-9-9-9-9-9-12-12---------12-12-||------------------------------------------------------------------------------||------------------------------------------------------------------------------||------------------------------------------------------------------------------||------------------------------------------------------------------------------|
|-9-9-----------------9-9-12-12-10-10-9-9-----------------------9-9-10-10-10-10-||----10-10-10-10-10-10-------------------12-12-9-9-9-9-9-9-12-12----------------||-------------------------------------------------------------------------------||-------------------------------------------------------------------------------||-------------------------------------------------------------------------------||-------------------------------------------------------------------------------|
|------------------------------------------------------------------||--------10-9-10-9--------9-7-9-7--------10-9-10-9-------9----9-10-||--11-------------11-9-----------9-11-------------11-9-11-9-11-----||------------------------------------------------------------------||------------------------------------------------------------------||------------------------------------------------------------------|
|---------------------------------------------------------------------||-12-10-12-10-9-----12-10-12-10-9-10----12-10-12-10-9-9-10-12-10-8-10-||--------------9-------------------------------------9----------------||---------------------------------------------------------------------||---------------------------------------------------------------------||---------------------------------------------------------------------|
|-------------------------------------------------------||-20----20-20-19-17-19--------17-19-17----17-17---------||---------------------20----20-----------------20-19-19-||-------------------------------------------------------||-------------------------------------------------------||-------------------------------------------------------|
|------17----------------------------------------------------||-18-20--20-18-17--------------------------------------------||----------------19-17-----------------14--14-16-17-17-16-14-||---------------------20-19-17-----------14------------------||-----------------------------20-19-17-----------------------||------------------------------------------------------------|
|-------------------------------------------------------------------||-------------------------------------------------------------------||-14--14-16-17-16-14--------------------------14--14-16-17-14-16----||---14--------------17-15-14-17-15-14-----------14---------------17-||------------------------------------17-15-14-----------------------||-------------------------------------------------------------------|
|-19~---19-17-19-19~---19-17-17----12-13-15-13-12-------------------------||------------------------------------------------15-13-12-15-13-12--------||-16~---16-14-16-16~---16-14-14-----------------------------------14-12---||----------------------------------------------------------------------15-||-------------------------------------------------------------------------||-------------------------------------------------------------------------|
|----------------------------------------------------------------------||----------------------------------------------------------------------||-14--14-16-17-17-16-14-14--14-16--17-16-14----------------------------||---14--------------------14---------------17-15-14-17-15-14-----------||-----------------------------------------------------------17-15-14---||----------------------------------------------------------------------|
|----------------------------------------------------------||-------------------------------------------20~--20-17-17--||-14--14-16-17-14-16-17-20~---19-17-20~-20~----------------||---14-----------------------------------------------------||----------------------------------------------------------||----------------------------------------------------------|
|---------------------------------------------------------||-------------------------------------------------------8-||--7-000-8-000-10-000-8-7------7-000-8-000-10-000-7-8-10--||------------------------10-8-----------------------------||---------------------------------------------------------||---------------------------------------------------------|
|---------------------------------------------------------------||---------------------------------------------------------------||--7-000-8-000-10-000-8-7------7-000-8-000-10-000-8-7-----------||------------------------10-8------------------------10-8-7-----||----------------------------------------------------------10-9-||---------------------------------------------------------------|
|---------------------------------------------------------||-------------------------------------------------------8-||--7-000-8-000-10-000-8-7------7-000-8-000-10-000-7-8-10--||------------------------10-8-----------------------------||---------------------------------------------------------||---------------------------------------------------------|
|---------------------------------------------------------------|-----||---------------------------------------------------------------|-----||--7-000-8-000-10-000-8-7------7-000-8-000-10-000-8-7-----------|-----||------------------------10-8------------------------10-8-7-----|-----||----------------------------------------------------------10-9-|-5-5-||---------------------------------------------------------------|-3-3-|
Tap to rate this tab
 
# A B C D E F G H I J K L M N O P Q R S T U V W X Y Z