Hard-ons – Ill Get Thrush Or Something tab

Artist - Hard-Ons
Song - I'll Get Thrush Or Something

tabbed by shanE
email - random.hero___@hotmail.com

|------------------------||------------------------||-----------------7-7----||--9-9--7-7--5-5--7-7----||--9-9--7-7--5-5--5-5----||--7-7--5-5--3-3---------|
|------------------------||------------------------||--------11-9-9h11-------||-9-9-12-----------9-----||------------------------||------------------------|
|------------------------||------------------------||------------------------||-9-9-9h11-7-7-7h9-5-----||------------------------||------------------------|
|------------------------||------------------------||--------11-9-9h11-------||-9-9-12-----------9-----||------------------------||------------------------|
|---------------------||---------------------||---------------------||-9-9-9-7-7-7-5-5-5---||---------------------||---------------------|
|------------------------||------------------------||-----------------7-7----||--9-9--7-7--5-5--7-7----||--9-9--7-7--5-5--5-5----||--7-7--5-5--3-3---------|
|------------------------||------------------------||------------------------||------------------------||------------------------||--7~--------------------|
pause
|------------------------||------------------------||------------------------||------------------------||--9-9-9-9-9-9-9-9-9-9-9-||--7-7-7-7-7-7-7-7-7-7-7-|...........pm.............
|------------------------||------------------------||------------------------||------------------------||--2-2-2-2-2-2-5-5-5-5-5-||--0-0-0-0-0-0-3-3-3-3-3-|...........pm.............
|------------------------||------------------------||-----------------7-7----||--9-9--7-7--5-5--7-7----||--9-9--7-7--5-5--5-5----||--7-7--5-5--3-3---------|
|------------------------||------------------------||--------11-9-9h11-------||-9-9-12-----------9-----||------------------------||------------------------|
|---------||---------||---------||--9------||--9------||--7------|
Please rate this tab:
x1.0