Hardcore Superstar - Sensitive To The Light tab

Amazing band, amazing song, and fun as hell to play. I dont know the solo so.. improvise 
with abit of Van Halen tapping?? I dont know..


Listening to the song while playing this to get timing and everything..


INTRO:

[00.00 - 00.08]

|-----------------------||-----------------------||-----------------------||-----------------------||-----------------------||--0-0-0-0-0------------| x4
[00.08 - 00.22]
|-------------------------||-------------------------||-------------------------||-------------7---7---7---||-------------5---5---5---||--0-0-0-0-0--------------| x8
|--------------------||--------------------||--------------------||-3-----5~-----------||-1--3--3~-----------||----1---------------|
[00.27 - 00.41]
|-------------------------|--------------------||-------------------------|--------------------||-------------------------|--------------------||--3--0--3--5--7----5--3--|--5-----------------||-------------------------|-----------3--------||-------------------------|--------------------|
|------------------------|------------------------||------------------------|------------------------||------------------------|------------------------||--3--0--3--7--5----3----|------------------------||------------------------|--3---------------------||------------------------|------------------------|
|-------------------------|--------------------||-------------------------|--------------------||-------------------------|--------------------||--3--0--3--5--7----5--3--|--5-----------------||-------------------------|-----------3--------||-------------------------|--------------------|
|------------------------|-------------------||------------------------|-------------------||------------------------|-------------------||--7--5--7--8--7----5----|-------------------||------------------------|--3--5--3----------||------------------------|-------------------|
(This next bit is played under the solo type riff above, its also the main verse riff.)
|--------------------------|------------------------------||--------------------------|------------------------------||--------------------------|------------------------------||--7--7--7--7--7--7--7--9--|--10--10--10---5--5--5--5--5--||--5--5--5--5--5--5--5--7--|---8---8---8---3--3--3--3--3--||--------------------------|------------------------------|
|--------------------------|-----------------------------||--------------------------|-----------------------------||--------------------------|-----------------------------||--7--7--7--7--3--3--3--3--|--5--5--5--5--5--5--5--5--5--||--5--5--5--5--1--1--1--1--|--3--3--3--3--3--3--3--3--3--||--------------------------|-----------------------------|
VERSE: [00.42 - 1.10]
|--------------------------|------------------------------||--------------------------|------------------------------||--------------------------|------------------------------||--7--7--7--7--7--7--7--9--|--10--10--10---5--5--5--5--5--||--5--5--5--5--5--5--5--7--|---8---8---8---3--3--3--3--3--||--------------------------|------------------------------|
|--------------------------|-----------------------------||--------------------------|-----------------------------||--------------------------|-----------------------------||--7--7--7--7--3--3--3--3--|--5--5--5--5--5--5--5--5--5--||--5--5--5--5--1--1--1--1--|--3--3--3--3--3--3--3--3--3--||--------------------------|-----------------------------|
PRE-CHORUS: [1.10 - 01.25]
|--------------------------|--------------------------||--------------------------|--------------------------||--------------------------|--------------------------||--3--3--3--3--3--3--3--3--|--5--5--5--5-----------5--||--1--1--1--1--1--1--1--1--|--3--3--3--3--0--0--0--3--||--------------------------|--------------0--0--0-----| . .
CHORUS: [01.25 - 1.40]
|--------------------------|------------------------------||--------------------------|------------------------------||--------------------------|------------------------------||--7--7--7-----------------|--7--7--7---------------------||--5--5--5--0--0--0--0--0--|--5--5--5--0--0--0--0--0------||-----------0--0--0--0--0--|-----------0--0--0--0--0------| . . . . . . . . . .
|----------------------------|------------------------------||----------------------------|------------------------------||--------------12--10--9--7--|------------------------------||--3-----5-----12--10--9--7--|------------------------------||--1--3--3-------------------|------------------------------||-----1----------------------|------------------------------|
|--------------------------|------------------------------||--------------------------|------------------------------||--------------------------|------------------------------||--7--7--7-----------------|--7--7--7---------------------||--5--5--5--0--0--0--0--0--|--5--5--5--0--0--0--0--0------||-----------0--0--0--0--0--|-----------0--0--0--0--0------| . . . . . . . . . .
|----------------||----------------||----------------||--3-----5~------||--1--3--3~------||-----1----------|
[1.40 - 1.55] Play the bit after the intro again.. I think you get me know. Thats pretty much the main song, i dont know whats played under guitar during PRE-CHORUS part. But anyway, thats the song. If someone can do the solo it would be much appreciated im sure. More HCSS tabs would be nice aswell :)
Tap to rate this tab
 
# A B C D E F G H I J K L M N O P Q R S T U V W X Y Z