Harmonium - Harmonium tab

Harmonium - Harmonium
Partition: Patrick Chamberland
Email: sk8_pat13@hotmail.com

E||--------2---2-------3-2----|------2----------2-------3-2-----|B||--3-----3-----3------------|----2-------2--------2-------3---|G||-----2---------------------|--2---------2------2---2-------2-|D||--0--------------0------0--|---------0-------------------0---|A||---------------------------|---------------------------------|E||---------------------------|---------------------------------|
--------2-----2------3-2-----|--0-----3-----0-------------|--3-----1-----1--1---1---1-0-|------------3----3----3-3-3-|-----2-----------------------|-----------------0----0-----|--0--------0-------0-------0-|--2--0----------------------|-----------------------------|-------------------2--------|-----------------------------|----------------------------|
-----0--3---0---------0----|--------2----2----2-3-2-----|--1-----3------3----3----3-|--3-----3-------3-----------|---------------------------|-----2----------------------|-----2---------------------|--0---------------0-----0-0-|--3--------------3---------|----------------------------|---------------------------|----------------------------|
------------0--------0-----|---------------3-2----|--3--3--1-----1--3-----3-1-|--3----------------3--|--------2-----2------------|----------------------|--0--0-----------0---------|--0-------------------|---------------------------|----------------------|---------------------------|----------------------|
--5-----2-------2-2-2-2-2-|--------2----2--2-2-2--2-2--|--------3-------3-3-3-3-3-|-----2--2-------2-2-2--2-2--|--------------------------|-----2-----2----------------|--0--0------------------0-|--0-------------------------|--------------------------|----------------------------|--------------------------|----------------------------|
--------2----2--2-2-2--2-2--|---------3--0------0-----|-----1--1-------1-1-1--1-1--|---------3--3-3--3----0--|-----2-----2----------------|-------------------------|--0-------------------------|--2----------------------|----------------------------|-------------------------|----------------------------|-------------------------|
--------3--3-0-----0--0-0--|--------2----2------2-2-----|--1-----3--------3----3-3--|--3-----3-------3-----------|-----0---------------------|-----2----------------------|---------------------------|--0---------------0-----0-0-|--3------------------------|----------------------------|---------------------------|----------------------------|
--3---------3----0-3-0-3-0-|--2--------3-2----3-2----|--1-----0---3-3--3-3-3-3-3-|--3------------3------3--|--0-----0-----4--0-4-4-4-0-|--2----------------------|--2-----0--------0-5-5-5-0-|--0----------------------|--3-----2--------2-------2-|-------------------------|--------3------------------|-------------------------|
--------2-------2-2-2-2-2-|--------2----2--2-2-2--2-2--|--------3-------3-3-3-3-3-|-----2--2-------2-2-2--2-2--|-----2------------------2-|-----2-----2----------------|--0---------------------0-|--0-------------------------|--------------------------|----------------------------|--------------------------|----------------------------|
--------2----2--2-2-2--2-2--|---------3--0------0-----|-----1--1-------1-1-1--1-1--|---------3--3-3--3----0--|-----2-----2----------------|-------------------------|--0-------------------------|--2----------------------|----------------------------|-------------------------|----------------------------|-------------------------|
--------3--3-0-----0--0-0--|--------2----2------2-2-----|--1-----3--------3----3-3--|--3-----3-------3-----------|-----0---------------------|-----2----------------------|---------------------------|--0---------------0-----0-0-|--3------------------------|----------------------------|---------------------------|----------------------------|
--0---------3----3-0-3-0-0-|--0------0--3-0--3-3-3-3-3-|--1---------3-3--3-3-3-3-3-|--2------0--0-0--0-0-0-0-0-|--0---------0-0--0-0-0-0-0-|--3------0--0----0-0-0-0-0-|--2------0-------0-0-0-0-0-|--4------2-------2-2-2-2-2-|--3------2-------2-2-2-2-2-|--4------2-------2-2-2-2-2-|---------3-------3-----3-3-|---------0-------0-0-0-0-0-|
--0------3--3-3--3-3-3-3-3-|--2----------------|--1------3--3-3--3-3-3-3-3-|--3----------------|--0------0--0----0-0-0-0-0-|--2----------------|--2------0-------0-0-0-0-0-|--0----------------|--3------2-------2-2-2-2-2-|-------------------|---------3-------3-3-3-3-3-|-------------------|
--------------------------|--0--0-0---0--0--0--0--0-|--3--3-3---3--3--3--3-3-3-|--1--1-1---1--1--1--1--1-|--3--3-3---3--3--3--3-3-3-|--2--2-2---2--2--2--2--2-|--5--5-5---5--5--5--5-5-5-|--2--2-2---2--2--2--2--2-|--5--5-5---5--5--5--5-5-5-|--0--0-0---0--0--0--0--0-|--3--3-3---3--3--3--3-3-3-|-------------------------|
--2--2-2---2--2--2--2--2-|--0--0---0---0---0---0--|--3--3-3---3--3--3--3--3-|--0--0---0---0---0---0--|--2--2-2---2--2--2--2--2-|--1--1---1---1---1---1--|--0--0-0---0--0--0--0--0-|--2--2---4---2---4---2--|-------------------------|--2--2---2---2---2---2--|-------------------------|--0--0---0---0---0---0--|
--0--0-0---0--0--0--0--0-|--3---3--3---------0--|--1--1-1---1--1--1--1--1-|--3---3--3---------0--|--2--2-2---2--2--2--2--2-|--0---0--0---------0--|--2--2-2---2--2--2--2--2-|--0---0--0---------0--|--0--0-0---0--0--0--0--0-|--2---2--2------------|-------------------------|--3---3--3------------|
--2--2-2----2--2-2----|--2--2-2-2-2-2---------|--3--3-3----3--3-3----|--3--3-3-3-3-3---------|--2--2-2----2--2-2----|--2--2-2-2-2-2---------|--0--0-0----0--0-0----|--0--0-0-0-0-0---------|----------------------|-----------------------|----------------------|-----------------------|
--2---2-2----2---2-2-2-2-2-|--2---2-2-2-2-2-2---2-2-2-2-2-|--3---3-3----3---3-3-3-3-3-|--3---3-3-3-3-3-3---3-3-3-3-3-|--4---4-4----3---3-3-3-3-3-|--2---2-2-2-2-2-1---1-1-1-1-1-|--4---4-4----4---4-4-4-4-4-|--4---4-4-4-4-4-4---4-4-4-4-4-|--2---2-2----2---2-2-2-2-2-|------------------------------|---------------------------|------------------------------|
--3---3-3-3-3-3-3---3-3-3-3-3-|--2--2-2-2-2-3--3--3--2-2-2-|--3---3-3-3-3-3-3---3-3-3-3-3-|--3--3-3-3-3-3--3--3--3-3-3-|--0---0-0-0-0-0-0---0-0-0-0-0-|--2--2-2-2-2-2--2--2--2-2-2-|--0---0-0-0-0-0-0---0-0-0-0-0-|--0--0-0-0-0-0--0--0--0-0-0-|--2---2-2-2-2-2-2---2-2-2-2-2-|----------------------------|--3---3-3-3-3-3-3---3-3-3-3-3-|----------------------------|
--2---2-2----2---2-2-2-2-2-|--2---2-2-2-2-2-2---2-2-2-2-2-|--3---3-3----3---3-3-3-3-3-|--3---3-3-3-3-3-3---3-3-3-3-3-|--4---4-4----3---3-3-3-3-3-|--2---2-2-2-2-2-1---1-1-1-1-1-|--4---4-4----4---4-4-4-4-4-|--4---4-4-4-4-4-4---4-4-4-4-4-|--2---2-2----2---2-2-2-2-2-|------------------------------|---------------------------|------------------------------|
--3---3-3-3-3-3-3---3-3-3-3-3-|--2----------------|--3---3-3-3-3-3-3---3-3-3-3-3-|--3----------------|--0---0-0-0-0-0-0---0-0-0-0-0-|--2----------------|--0---0-0-0-0-0-0---0-0-0-0-0-|--0----------------|--2---2-2-2-2-2-2---2-2-2-2-2-|-------------------|--3---3-3-3-3-3-3---3-3-3-3-3-|-------------------|
--2---2-2----2---2-2-2-2-2-|--2---2-2-2-2-2-2---2-2-2-2-2-|--3---3-3----3---3-3-3-3-3-|--3---3-3-3-3-3-3---3-3-3-3-3-|--4---4-4----3---3-3-3-3-3-|--2---2-2-2-2-2-1---1-1-1-1-1-|--4---4-4----4---4-4-4-4-4-|--4---4-4-4-4-4-4---4-4-4-4-4-|--2---2-2----2---2-2-2-2-2-|------------------------------|---------------------------|------------------------------|
--3---3-3-3-3-3-3---3-3-3-3-3-|--2--2-2-2-2-3--3--3--2-2-2-|--3---3-3-3-3-3-3---3-3-3-3-3-|--3--3-3-3-3-3--3--3--3-3-3-|--0---0-0-0-0-0-0---0-0-0-0-0-|--2--2-2-2-2-2--2--2--2-2-2-|--0---0-0-0-0-0-0---0-0-0-0-0-|--0--0-0-0-0-0--0--0--0-0-0-|--2---2-2-2-2-2-2---2-2-2-2-2-|----------------------------|--3---3-3-3-3-3-3---3-3-3-3-3-|----------------------------|
--2---2-2----2---2-2-2-2-2-|--2---2-2-2-2-2-2---2-2-2-2-2-|--3---3-3----3---3-3-3-3-3-|--3---3-3-3-3-3-3---3-3-3-3-3-|--4---4-4----3---3-3-3-3-3-|--2---2-2-2-2-2-1---1-1-1-1-1-|--4---4-4----4---4-4-4-4-4-|--4---4-4-4-4-4-4---4-4-4-4-4-|--2---2-2----2---2-2-2-2-2-|------------------------------|---------------------------|------------------------------|
--3---3-3-3-3-3-3---3-3-3-3-3-|--2-----2---2-------3-2----|--3---3-3-3-3-3-3---3-3-3-3-3-|--3-----3-----3------------|--0---0-0-0-0-0-0---0-0-0-0-0-|--2--2---------------------|--0---0-0-0-0-0-0---0-0-0-0-0-|--0--------------0------0--|--2---2-2-2-2-2-2---2-2-2-2-2-|---------------------------|--3---3-3-3-3-3-3---3-3-3-3-3-|---------------------------|
------2----------2-------3-2-----|--------2-----2------3-2-----|----2-------2--------2-------3---|--3-----1-----1--1---1---1-0-|--2---------2------2---2-------2-|-----2-----------------------|---------0-------------------0---|--0--------0-------0-------0-|---------------------------------|-----------------------------|---------------------------------|-----------------------------|
--0-----3-----0-------------|-----0--3---0---------0----|------------3----3----3-3-3-|--1-----3------3----3----3-|-----------------0----0-----|---------------------------|--2--0----------------------|-----2---------------------|-------------------2--------|--3--------------3---------|----------------------------|---------------------------|
--------2----2----2-3-2-----|--------0-3--0----------0-----|--3-----3-------3-----------|----1-3-------------------3-1-|-----2----------------------|-------------2----------------|--0---------------0-----0-0-|--0-----------------0---------|----------------------------|------------------------------|----------------------------|------------------------------|
---------------3-2----|--5-----2-------2-2-2-2-2-|--3----------------3--|--------3-------3-3-3-3-3-|----------------------|--------------------------|--0-------------------|--0--0------------------0-|----------------------|--------------------------|----------------------|--------------------------|
--------2----2--2-2-2--2-2--|--------2----2--2-2-2--2-2--|-----2--2-------2-2-2--2-2--|-----1--1-------1-1-1--1-1--|-----2-----2----------------|-----2-----2----------------|--0-------------------------|--0-------------------------|----------------------------|----------------------------|----------------------------|----------------------------|
---------3--0------0-----|--------3--3-0-----0--0-0--|---------3--3-3--3----0--|--1-----3--------3----3-3--|-------------------------|-----0---------------------|--2----------------------|---------------------------|-------------------------|--3------------------------|-------------------------|---------------------------|
--------2----2------2-2-----|--0---------3----0-3-0-3-0-|--3-----3-------3-----------|--1-----0---3-3--3-3-3-3-3-|-----2----------------------|--0-----0---0-0--0-0-0-0-0-|--0---------------0-----0-0-|--2--------------0-0-0-0-0-|----------------------------|--3-----2--------2-2-2-2-2-|----------------------------|--------3--------3-3-3-3-3-|
--2--------3-2----3-2----|--------2-------2-2-2-2-2-|--3------------3------3--|--------3-------3-3-3-3-3-|--2----------------------|-----2------------------2-|--0----------------------|--0---------------------0-|-------------------------|--------------------------|-------------------------|--------------------------|
--------2----2--2-2-2--2-2--|--------2----2--2-2-2--2-2--|-----2--2-------2-2-2--2-2--|-----1--1-------1-1-1--1-1--|-----2-----2----------------|-----2-----2----------------|--0-------------------------|--0-------------------------|----------------------------|----------------------------|----------------------------|----------------------------|
---------3--0------0-----|--------3--3-0-----0--0-0--|---------3--3-3--3----0--|--1-----3--------3----3-3--|-------------------------|-----0---------------------|--2----------------------|---------------------------|-------------------------|--3------------------------|-------------------------|---------------------------|
--------2----2------2-2-----|--0---------3----0-3-3-3-3-|--3-----3-------3-----------|--1------0--3-3--3-3-3-3-3-|-----2----------------------|--0------0--0-0--0-0-0-0-0-|--0---------------0-----0-0-|--2------0-------0-0-0-0-0-|----------------------------|--3------2-------2-5-2-2---|----------------------------|---------3-------3-3-3-3---|
--0------0--3-0--3-3-3-3-3-|--0------3--3-3--3-3-3-3-3-|--2------0--0-0--0-0-0-0-0-|--1------3--3-3--3-3-3-3-3-|--3------0--0----0-0-0-0-0-|--0------0--0----0-0-0-0-0-|--4------2-------2-2-2-2-2-|--2------0-------0-0-0-0-0-|--4------2-------2-2-2-2-2-|--3------2-------2-2-2-2-2-|---------0-------0-0-0-0-0-|---------3-------3-3-3-3-3-|
--2----------------|--------------------------|--3----------------|--3--3-3---3--3--3--3-3-3-|--2----------------|--3--3-3---3--3--3--3-3-3-|--0----------------|--5--5-5---5--5--5--5-5-5-|-------------------|--5--5-5---5--5--5--5-5-5-|-------------------|--3--3-3---3--3--3--3-3-3-|
--0--0-0---0--0--0--0--0-|--2--2-2---2--2--2--2--2-|--1--1-1---1--1--1--1--1-|--3--3-3---3--3--3--3--3-|--2--2-2---2--2--2--2--2-|--2--2-2---2--2--2--2--2-|--2--2-2---2--2--2--2--2-|--0--0-0---0--0--0--0--0-|--0--0-0---0--0--0--0--0-|-------------------------|-------------------------|-------------------------|
--0--0---0---0---0---0--|--0--0-0---0--0--0--0--0-|--0--0---0---0---0---0--|--1--1-1---1--1--1--1--1-|--1--1---1---1---1---1--|--2--2-2---2--2--2--2--2-|--2--2---4---2---4---2--|--2--2-2---2--2--2--2--2-|--2--2---2---2---2---2--|--0--0-0---0--0--0--0--0-|--0--0---0---0---0---0--|-------------------------|
--3---3--3---------0--|--2--2-2----2--2-2----|--3---3--3---------0--|--3--3-3----3--3-3----|--0---0--0---------0--|--2--2-2----2--2-2----|--0---0--0---------0--|--0--0-0----0--0-0----|--2---2--2------------|----------------------|--3---3--3------------|----------------------|
--2--2-2-2-2-2---------|--2---2-2----2---2-2-2-2-2-|--3--3-3-3-3-3---------|--3---3-3----3---3-3-3-3-3-|--2--2-2-2-2-2---------|--4---4-4----3---3-3-3-3-3-|--0--0-0-0-0-0---------|--4---4-4----4---4-4-4-4-4-|-----------------------|--2---2-2----2---2-2-2-2-2-|-----------------------|---------------------------|
--2---2-2-2-2-2-2---2-2-2-2-2-|--3---3-3-3-3-3-3---3-3-3-3-3-|--3---3-3-3-3-3-3---3-3-3-3-3-|--3---3-3-3-3-3-3---3-3-3-3-3-|--2---2-2-2-2-2-1---1-1-1-1-1-|--0---0-0-0-0-0-0---0-0-0-0-0-|--4---4-4-4-4-4-4---4-4-4-4-4-|--0---0-0-0-0-0-0---0-0-0-0-0-|------------------------------|--2---2-2-2-2-2-2---2-2-2-2-2-|------------------------------|--3---3-3-3-3-3-3---3-3-3-3-3-|
--2--2-2-2-2-3--3--3--2-2-2-|--2---2-2----2---2-2-2-2-2-|--3--3-3-3-3-3--3--3--3-3-3-|--3---3-3----3---3-3-3-3-3-|--2--2-2-2-2-2--2--2--2-2-2-|--4---4-4----3---3-3-3-3-3-|--0--0-0-0-0-0--0--0--0-0-0-|--4---4-4----4---4-4-4-4-4-|----------------------------|--2---2-2----2---2-2-2-2-2-|----------------------------|---------------------------|
--2---2-2-2-2-2-2---2-2-2-2-2-|--3---3-3-3-3-3-3---3-3-3-3-3-|--3---3-3-3-3-3-3---3-3-3-3-3-|--3---3-3-3-3-3-3---3-3-3-3-3-|--2---2-2-2-2-2-1---1-1-1-1-1-|--0---0-0-0-0-0-0---0-0-0-0-0-|--4---4-4-4-4-4-4---4-4-4-4-4-|--0---0-0-0-0-0-0---0-0-0-0-0-|------------------------------|--2---2-2-2-2-2-2---2-2-2-2-2-|------------------------------|--3---3-3-3-3-3-3---3-3-3-3-3-|
--2-----2---2-------3-2----|------2----------2-------3-2-----|--3-----3-----3------------|----2-------2--------2-------3---|--2--2---------------------|--2---------2------2---2-------2-|--0--------------0------0--|---------0-------------------0---|---------------------------|---------------------------------|---------------------------|---------------------------------|
--------2-----2------3-2-----|--0-----3-----0-------------|--3-----1-----1--1---1---1-0-|------------3----3----3-3-3-|-----2-----------------------|-----------------0----0-----|--0--------0-------0-------0-|--2--0----------------------|-----------------------------|-------------------2--------|-----------------------------|----------------------------|
-----0--3---0---------0----|--------2----2----5-3-2-----|--1-----3------3----3----3-|--3-----3-------3-7---------|---------------------------|-----2----------------------|-----2---------------------|--0---------------0-----0-0-|--3--------------3---------|----------------------------|---------------------------|----------------------------|
-----0------0---------0----|-------------2--------2----|--------3------3----3----3-|--------2-----------2-2-2--|-----0---------------------|-----3------------3-3-3----|--2-----2------------------|-----4---------------------|---------------------------|---------------------------|--0--------------0---------|--2------------------------|
----------2---------2--------|--------------------2--------|-----3-------3--0------3-----|-----3-------3--0------3-----|-----4---------------------4-|-----4---------------------4-|------------------4------4---|----------4-------4------4---|--2-----2--------------------|--0-----0--------------------|-----------------------------|-----------------------------|
----------0---------0--------|----------2---------2--------|-----3-------3--0------3---0-|-----2-------2---------2-----|-----4-----------------------|-----3----------3----------3-|------------------4------4---|------------------4------4---|-----------------------------|-----------------------------|--3-----3--------------------|--2-----2--------------------|
----------2---------2--------|--------------------2--------|-----3-------3--0------3-----|-----3-------3--0------3-----|-----4---------------------4-|-----4---------------------4-|------------------4------4---|----------4-------4------4---|--2-----2--------------------|--0-----0--------------------|-----------------------------|-----------------------------|
----------0---------0--------|----------2---------2--------|-----3-------3--0------3---0-|-----2-------2---------2-----|-----4-----------------------|-----3----------3----------3-|------------------4------4---|------------------4------4---|-----------------------------|-----------------------------|--3-----3--------------------|--2-----2--------------------|
----------2---------2--------|--------------------2--------|-----3-------3--0------3-----|-----3-------3--0------3-----|-----4---------------------4-|-----4---------------------4-|------------------4------4---|----------4-------4------4---|--2-----2--------------------|--0-----0--------------------|-----------------------------|-----------------------------|
----------0---------0--------|----------2---------2-------|-----3-------3--0------3---0-|-----2-------2---------2----|-----4-----------------------|-----3----------3-----------|------------------4------4---|------------------4------4--|-----------------------------|----------------------------|--3-----3--------------------|--2-----2-------------------|
-------------2-------------|-------------0-------------|--------3------3-----3-----|--------2------2-----2-----|-----2-----2------2-----2--|-----2------------2-----2--|--0------------------------|-----------2---------------|---------------------------|--0------------------------|---------------------------|---------------------------|
----------------0-----------|-------------2-------------|--------3--0------3---3-----|-----0--3--0----3-0--3--0--|-------------0------0-4--0--|---------------------------|-----2----------------------|---------------------------|----------------------------|--2------------------------|--0-------------------------|---------------------------|
-------------0-------------|-------------3-------------|--------1-------1----1-----|--------0------0-----0-----|-----0-----0------0-----0--|-----0-----0------0-----0--|---------------------------|---------------------------|--3------------------------|---------------------------|---------------------------|--3------------------------|
--------2---2-2-----2------|--2-----2------2-2--2-2-2-2-2-|--------2---2----2----2----|--2---2--------2-2--2-2-2-2-2-|-----3--3---3----3-------3-|--3---3---3----3-3--3-3-3-3-3-|-----4-----------4-------4-|--4----------4-4----4-4-4-4-4-|---------------------------|--4-------------------4-------|--2-----------2------------|--2-------------------2-------|
----------2---------2--------|--------------------2--------|-----3-------3--0------3-----|-----3-------3--0------3-----|-----4---------------------4-|-----4---------------------4-|------------------4------4---|----------4-------4------4---|--2-----2--------------------|--0-----0--------------------|-----------------------------|-----------------------------|
----------0---------0--------|----------2---------2--------|-----3-------3--0------3---0-|-----2-------2---------2-----|-----4-----------------------|-----3----------3----------3-|------------------4------4---|------------------4------4---|-----------------------------|-----------------------------|--3-----3--------------------|--2-----2--------------------|
----------2---------2--------|--------------------2--------|-----3-------3--0------3-----|-----3-------3--0------3-----|-----4---------------------4-|-----4---------------------4-|------------------4------4---|----------4-------4------4---|--2-----2--------------------|--0-----0--------------------|-----------------------------|-----------------------------|
----------0---------0--------|----------2---------2-------|-----3-------3--0------3---0-|-----2-------2---------2----|-----4-----------------------|-----3----------3-----------|------------------4------4---|------------------4------4--|-----------------------------|----------------------------|--3-----3--------------------|--2-----2-------------------|
-------------2-------------|-------------0-------------|--------3------3-----3-----|--------2------2-----2-----|-----2-----2------2-----2--|-----2------------2-----2--|--0------------------------|-----------2---------------|---------------------------|--0------------------------|---------------------------|---------------------------|
----------------0-----------|-------------2-------------|--------3--0------3---3-----|-----0--3--0----3-0--3--0--|-------------0------0-4--0--|---------------------------|-----2----------------------|---------------------------|----------------------------|--2------------------------|--0-------------------------|---------------------------|
-------------0-------------|-------------3-------------|--------1-------1----1-----|--------0------0-----0-----|-----0-----0------0-----0--|-----0-----0------0-----0--|---------------------------|---------------------------|--3------------------------|---------------------------|---------------------------|--3------------------------|
--------2---2-2-----2------|--2-----2------2-2--2-2-2-2-2-|--------2---2----2----2----|--2---2--------2-2--2-2-2-2-2-|-----3--3---3----3-------3-|--3---3---3----3-3--3-3-3-3-3-|-----4-----------4-------4-|--4----------4-4----4-4-4-4-4-|---------------------------|--4-------------------4-------|--2-----------2------------|--2-------------------2-------|
--2--------2-2--2----2--|----2----2-2---2----3--|--3----3---3-3--3----2--|----2----2-2---2----3--|--0----0---0-0--0----2--|----2----2-2---2----4--|--2----2---2-2--2----4--|----4----4-4---4----5--|--2----2---2-2--2-------|-----------------------|---------------------2--|----2----2-2---2----3--|
----------3-3-----3---------|-----2-----------------|----3-----3-3-----3---------|---2-------------------|----4-----4-4-----4-------2-|-----------------------|----5-----5-5-----5-----2---|-----------------------|----------------------0-----|-----------------------|----3-----3-3-----3---------|-----------------------|
------------------|------------------||------------------|------------------||------------------|------------------||------------------|------------------||------------------|------------------||------------------|------------------||
Tap to rate this tab
 
# A B C D E F G H I J K L M N O P Q R S T U V W X Y Z