Haste The Day - All I Have tab

Guitar 1

Legend
L - tied note
x - dead note
h - hammer on/pull off
b - bend
s - slide
~ - vibrato
g - ghost note
> - accentuated note
t - trill
M - palm mute
. - staccato
P - popping (bass)
S - slapping (bass)
+ - tapping
W - wide vibrato
< - fade in
w - whammy bar
= - tremolo picking
v - brush up
^ - brush down
V - pick stroke up
n - pick stroke down


E |----------------------------|B |----------------------------|G |-----------10----9--10------|D |----------------------------|A |----------------------------|D |----------------------------|
----------------------------------------------------------------------------|----------------------------------------------------------------------------|--9--------------------------9-----------------9h----10h---9----------------|-----------------------------------------------------------------10---------|----------------------------------------------------------------------------|----------------------------------------------------------------------------|
----------------------------|----------------------------|----------------------------|----------------------------|----------------------------|-----------------9----------|--12-------12----10-12------|--10-------10----------10---|----------------------------|----------------------------|----------------------------|----------------------------|
----------------------------|----------------------------|-----------10----9--10------|--12------------------------|----------------------------|----------------------------|
----------------------------------------------------------------------------|----------------------------------------------------------------------------|--9--------------------------9-----------------9h----10h---9----------------|-----------------------------------------------------------------10---------|----------------------------------------------------------------------------|----------------------------------------------------------------------------|
----------------------------|----------------------------|----------------------------|----------------------------|----------------------------|-----------------9----------|--12-------12----10-12------|--10-------10----------10---|----------------------------|----------------------------|----------------------------|----------------------------|
----------------------------|----------------------------|-----------10----9--10------|--12------------------------|----------------------------|----------------------------|
----------------------------------------------------------------------------|----------------------------------------------------------------------------|--9--------------------------9-----------------9h----10h---9----------------|-----------------------------------------------------------------10---------|----------------------------------------------------------------------------|----------------------------------------------------------------------------|
----------------------------|----------------------------|----------------------------|----------------------------|----------------------------|-----------------9----------|--12-------12----10-12------|--10-------10----------10---|----------------------------|----------------------------|----------------------------|----------------------------|
----------------------------|----------------------------|-----------10----9--10------|--12------------------------|----------------------------|----------------------------|
----------------------------------------------------------------------------|----------------------------------------------------------------------------|--9--------------------------9-----------------9h----10h---9----------------|-----------------------------------------------------------------10---------|----------------------------------------------------------------------------|----------------------------------------------------------------------------|
----------------------------|----------------------------|----------------------------|----------------------------|----------------------------|-----------------9----------|--12-------12----10-12------|--10-------10----------10---|----------------------------|----------------------------|----------------------------|----------------------------|
----------------------------|----------------------------|----------------------------|----------------------------|-----------10-9.----7-------|--9--------10-9.----7-------|----------------------------|----------------------------|----------------------------|----------------------------|----------------------------|----------------------------|
----------------------------|----------------------------|----------------------------|--------11-10-8-------------|-----------10-9.----7-------|--9--------------10-9--7----|--8-------------------------|----------------------------|----------------------------|----------------------------|----------------------------|----------------------------|
----------------------------|----------------------------|----------------------------|----------------------------|-----------10-9.----7-------|--9--------10-9.----7-------|----------------------------|----------------------------|----------------------------|----------------------------|----------------------------|----------------------------|
----------------------------|----------------------------|-----------10-9.----7-------|--8-------------------------|----------------------------|----------------------------|
----------------------------------------------------------------------------------------------------------11----------10----------------------11----------11s13---9-----------------------------------------------12----------------------------------------------------------------------------------------------------------------------------------------------------------------------------------------------------------------------------------------------------------------------------
-----------------------|----------------------------|-----------------------|----------------------------|-----------------------|-----------10-9.----7-------|-----------------------|----------------------------|-----------------------|----------------------------|-----------------------|----------------------------|
----------------------------|----------------------------|----------------------------|----------------------------|--9--------10-9.----7-------|-----------10-9.----7-------|----------------------------|--8-------------------------|----------------------------|----------------------------|----------------------------|----------------------------|
----------------------------|----------------------------|--------11-10-8-------------|----------------------------|--9--------------10-9--7----|-----------10-9.----7-------|----------------------------|----------------------------|----------------------------|----------------------------|----------------------------|----------------------------|
----------------------------|----------------------------|----------------------------|----------------------------|--9--------10-9.----7-------|-----------10-9.----7-------|----------------------------|--8-------------------------|----------------------------|----------------------------|----------------------------|----------------------------|
----------------------------|----------------------------|--------11-10----11s13------|----------------------------|--9-----------12------------|-----------10----9--10------|----------------------------|--12------------------------|----------------------------|----------------------------|----------------------------|----------------------------|
----------------------------------------------------------------------------|----------------------------------------------------------------------------|--9--------------------------9-----------------9h----10h---9----------------|-----------------------------------------------------------------10---------|----------------------------------------------------------------------------|----------------------------------------------------------------------------|
----------------------------|----------------------------|----------------------------|----------------------------|----------------------------|-----------------9----------|--12-------12----10-12------|--10-------10----------10---|----------------------------|----------------------------|----------------------------|----------------------------|
----------------------------|----------------------------|-----------10----9--10------|--12------------------------|----------------------------|----------------------------|
----------------------------------------------------------------------------|----------------------------------------------------------------------------|--9--------------------------9-----------------9h----10h---9----------------|-----------------------------------------------------------------10---------|----------------------------------------------------------------------------|----------------------------------------------------------------------------|
----------------------------|----------------------------|----------------------------|----------------------------|----------------------------|-----------------9----------|--12-------12----10-12------|--10-------10----------10---|----------------------------|----------------------------|----------------------------|----------------------------|
----------------------------|----------------------------|-----------10----9--10------|--12------------------------|----------------------------|----------------------------|
----------------------------------------------------------------------------|----------------------------------------------------------------------------|--9--------------------------9-----------------9h----10h---9----------------|-----------------------------------------------------------------10---------|----------------------------------------------------------------------------|----------------------------------------------------------------------------|
----------------------------|----------------------------|----------------------------|----------------------------|----------------------------|-----------------9----------|--12-------12----10-12------|--10-------10----------10---|----------------------------|----------------------------|----------------------------|----------------------------|
----------------------------|----------------------------|-----------10----9--10------|--12------------------------|----------------------------|----------------------------|
----------------------------------------------------------------------------|----------------------------------------------------------------------------|--9--------------------------9-----------------9h----10h---9----------------|-----------------------------------------------------------------10---------|----------------------------------------------------------------------------|----------------------------------------------------------------------------|
----------------------------|----------------------------|----------------------------|----------------------------|----------------------------|-----------------9----------|--12-------12----10-12------|--10-------10----------10---|----------------------------|----------------------------|----------------------------|----------------------------|
----------------------------|----------------------------|----------------------------|--0--------0----------------|--0--------------3----------|--0-------------------------|
----------------------------------------------------|----------------------------------------------------|----------------------------------------------------|--3-----------0-----0M----0M----0M----0M-0M-0M------|--------------------0M----0M----0M----0M-0M-0M------|--------------------0M----0M----0M----0M-0M-0M------|
----------------------------|----------------------------|----------------------------|----------------------------|----------------------------|----------------------------|--0--------0----------------|--3-----0--3--0-------------|--0--------------3----------|-----------------3--0-------|--0-------------------------|-----------------------3----|
----------------------------|----------------------------|----------------------------|--0--------0----------------|--0--------------3----------|--0-------------------------|
----------------------------------------------------|----------------------------------------------------|----------------------------------------------------|--3-----------0-----0M----0M----0M----0M-0M-0M------|--------------------0M----0M----0M----0M-0M-0M------|--------------------0M----0M----0M----0M-0M-0M------|
----------------------------|----------------------------|----------------------------|----------------------------|----------------------------|----------------------------|--0--------0----------------|--3-----0--3--0-------------|--0--------------3----------|-----------------3--0-------|--0-------------------------|-----------------------3----|
----------------------------|----------------------------|----------------------------|--0--------0----------------|--0--------------3----------|--0-------------------------|
----------------------------------------------------|----------------------------------------------------|----------------------------------------------------|--3-----------0-----0M----0M----0M----0M-0M-0M------|--------------------0M----0M----0M----0M-0M-0M------|--------------------0M----0M----0M----0M-0M-0M------|
----------------------------|----------------------------|----------------------------|----------------------------|----------------------------|----------------------------|--0--------0----------------|--3-----0--3--0-------------|--0--------------3----------|-----------------3--0-------|--0-------------------------|-----------------------3----|
----------------------------|----------------------------|----------------------------|--0--------0----------------|--0--------------3----------|--0-------------------------|
----------------------------------------------------|----------------------------------------------------|----------------------------------------------------|--3-----------0-----0M----0M----0M----0M-0M-0M------|--------------------0M----0M----0M----0M-0M-0M------|--------------------0M----0M----0M----0M-0M-0M------|
----------------------------|----------------------------|----------------------------|----------------------------|----------------------------|----------------------------|--0--------0----------------|--3-----0--3--0-------------|--0--------------3----------|-----------------3--0-------|--0-------------------------|-----------------------3----|
----------------------------------------------------------------------------|----------------------------------------------------------------------------|--7--------------------------7-----------------7L-------7h----9h----7-------|----------------------------------------------------------------------------|----------------------------------------------------------------------------|----------------------------------------------------------------------------|
----------------------------------------------------------------------------|----------------------------------------------------------------------------|--5--------------------------5-----------------5L-------5h----7h----5-------|----------------------------------------------------------------------------|----------------------------------------------------------------------------|----------------------------------------------------------------------------|
----------------------------|----------------------------|----------------------------|----------------------------|--3--------3-----3--5--7----|--10----10-10-10-10-10-10---|----------------------------|--10----10-10-10-10-10-10---|----------------------------|----------------------------|----------------------------|----------------------------|
----------------------------------------------------------------------------|----------------------------------------------------------------------------|--7--------------------------7-----------------7L-------7h----9h----7-------|----------------------------------------------------------------------------|----------------------------------------------------------------------------|----------------------------------------------------------------------------|
----------------------------------------------------------------------------|----------------------------------------------------------------------------|--5--------------------------5-----------------5L-------5h----7h----5-------|----------------------------------------------------------------------------|----------------------------------------------------------------------------|----------------------------------------------------------------------------|
----------------------------|----------------------------|----------------------------|----------------------------|--3--------3-----3--5--7----|--10----10-10-10-10-10-10---|----------------------------|--10----10-10-10-10-10-10---|----------------------------|----------------------------|----------------------------|----------------------------|
----------------------------------------------------------------------------|----------------------------------------------------------------------------|--7--------------------------7-----------------7L-------7h----9h----7-------|----------------------------------------------------------------------------|----------------------------------------------------------------------------|----------------------------------------------------------------------------|
----------------------------------------------------------------------------|----------------------------------------------------------------------------|--5--------------------------5-----------------5L-------5h----7h----5-------|----------------------------------------------------------------------------|----------------------------------------------------------------------------|----------------------------------------------------------------------------|
----------------------------|----------------------------|----------------------------|----------------------------|--3--------3-----3--5--7----|--10----10-10-10-10-10-10---|----------------------------|--10----10-10-10-10-10-10---|----------------------------|----------------------------|----------------------------|----------------------------|
----------------------------------------------------------------------------|----------------------------------------------------------------------------|--7--------------------------7-----------------7L-------7h----9h----7-------|----------------------------------------------------------------------------|----------------------------------------------------------------------------|----------------------------------------------------------------------------|
----------------------------------------------------------------------------|----------------------------------------------------------------------------|--5--------------------------5-----------------5L-------5h----7h----5-------|----------------------------------------------------------------------------|----------------------------------------------------------------------------|----------------------------------------------------------------------------|
----------------------------|----------------------------|----------------------------|----------------------------|--3--------3-----3--5--7----|--10----10-10-10-10-10-10---|----------------------------|--10----10-10-10-10-10-10---|----------------------------|----------------------------|----------------------------|----------------------------|
----------------------------|----------------------------|----------------------------|----------------------------|-----------10-9.----7-------|--9--------10-9.----7-------|----------------------------|----------------------------|----------------------------|----------------------------|----------------------------|----------------------------|
----------------------------|----------------------------|----------------------------|--------11-10-8-------------|-----------10-9.----7-------|--9--------------10-9--7----|--8-------------------------|----------------------------|----------------------------|----------------------------|----------------------------|----------------------------|
----------------------------|----------------------------|----------------------------|----------------------------|-----------10-9.----7-------|--9--------10-9.----7-------|----------------------------|----------------------------|----------------------------|----------------------------|----------------------------|----------------------------|
----------------------------|----------------------------|-----------10-9.----7-------|--8-------------------------|----------------------------|----------------------------|
----------------------------------------------------------------------------------------------------------11----------10----------------------11----------11s13---9-----------------------------------------------12----------------------------------------------------------------------------------------------------------------------------------------------------------------------------------------------------------------------------------------------------------------------------
-----------------------|----------------------------|-----------------------|----------------------------|-----------------------|-----------10----9--10------|-----------------------|----------------------------|-----------------------|----------------------------|-----------------------|----------------------------|
----------------------------------------------------------------------------|----------------------------------------------------------------------------|--9--------------------------9-----------------9h----10h---9----------------|-----------------------------------------------------------------10---------|----------------------------------------------------------------------------|----------------------------------------------------------------------------|
----------------------------|----------------------------|----------------------------|----------------------------|----------------------------|-----------------9----------|--12-------12----10-12------|--10-------10----------10---|----------------------------|----------------------------|----------------------------|----------------------------|
----------------------------|----------------------------|-----------10----9--10------|--12------------------------|----------------------------|----------------------------|
----------------------------------------------------------------------------|----------------------------------------------------------------------------|--9--------------------------9-----------------9h----10h---9----------------|-----------------------------------------------------------------10---------|----------------------------------------------------------------------------|----------------------------------------------------------------------------|
----------------------------|----------------------------|----------------------------|----------------------------|----------------------------|-----------------9----------|--12-------12----10-12------|--10-------10----------10---|----------------------------|----------------------------|----------------------------|----------------------------|
----------------------------|----------------------------|-----------10----9--10------|--12------------------------|----------------------------|----------------------------|
----------------------------------------------------------------------------|----------------------------------------------------------------------------|--9--------------------------9-----------------9h----10h---9----------------|-----------------------------------------------------------------10---------|----------------------------------------------------------------------------|----------------------------------------------------------------------------|
----------------------------|----------------------------|----------------------------|----------------------------|----------------------------|-----------------9----------|--12-------12----10-12------|--10-------10----------10---|----------------------------|----------------------------|----------------------------|----------------------------|
----------------------------|----------------------------|-----------10----9--10------|--12------------------------|----------------------------|----------------------------|
----------------------------------------------------------------------------|----------------------------------------------------------------------------|--9--------------------------9-----------------9h----10h---9----------------|-----------------------------------------------------------------10---------|----------------------------------------------------------------------------|----------------------------------------------------------------------------|
----------------------------|----------------------------|----------------------------|----------------------------|----------------------------|-----------------9----------|--12-------12----10-12------|--10-------10----------10---|----------------------------|----------------------------|----------------------------|----------------------------|
----------------------------|-----------10----8--10------|-----------10----9--10------|--12------------------------|----------------------------|----------------------------|
----------------------------------------------------------------------------|--8--------------------------8-----------------8h----10h---8----------------|--9--------------------------9-----------------9-----10----9-----10---------|-----------------------------------------------------------------12---------|----------------------------------------------------------------------------|----------------------------------------------------------------------------|
----------------------------|----------------------------|----------------------------|----------------------------|--9--------10----9--10------|--9--------9-----10---------|--10-------12----10-12------|--10-------10----12----10---|----------------------------|----------------------------|----------------------------|----------------------------|
----------------------------|----------------------------|-----------10----9--10------|--12------------------------|----------------------------|----------------------------|
----------------------------------------------------------------------------|----------------------------------------------------------------------------|--9--------------------------9-----------------9h----10h---9----------------|-----------------------------------------------------------------10---------|----------------------------------------------------------------------------|----------------------------------------------------------------------------|
----------------------------|----------------------------|----------------------------|----------------------------|----------------------------|-----------------9----------|--12-------12----10-12------|--10-------10----------10---|----------------------------|----------------------------|----------------------------|----------------------------|
----------------------------------------------------------------------------|----------------------------------------------------------------------------|--7--------------------------7-----------------7L-------7h----9h----7-------|----------------------------------------------------------------------------|----------------------------------------------------------------------------|----------------------------------------------------------------------------|
----------------------------------------------------------------------------|----------------------------------------------------------------------------|--5--------------------------5-----------------5L-------5h----7h----5-------|----------------------------------------------------------------------------|----------------------------------------------------------------------------|----------------------------------------------------------------------------|
----------------------------|----------------------------|----------------------------|----------------------------|--3--------3-----3--5--7----|--10----10-10-10-10-10-10---|----------------------------|--10----10-10-10-10-10-10---|----------------------------|----------------------------|----------------------------|----------------------------|
----------------------------------------------------------------------------|----------------------------------------------------------------------------|--7--------------------------7-----------------7L-------7h----9h----7-------|----------------------------------------------------------------------------|----------------------------------------------------------------------------|----------------------------------------------------------------------------|
----------------------------------------------------------------------------|----------------------------------------------------------------------------|--5--------------------------5-----------------5L-------5h----7h----5-------|----------------------------------------------------------------------------|----------------------------------------------------------------------------|----------------------------------------------------------------------------|
----------------------------|----------------------------|----------------------------|----------------------------|--3--------3-----3--5--7----|--10----10-10-10-10-10-10---|----------------------------|--10----10-10-10-10-10-10---|----------------------------|----------------------------|----------------------------|----------------------------|
----------------------------------------------------------------------------|----------------------------------------------------------------------------|--7--------------------------7-----------------7L-------7h----9h----7-------|----------------------------------------------------------------------------|----------------------------------------------------------------------------|----------------------------------------------------------------------------|
----------------------------------------------------------------------------|----------------------------------------------------------------------------|--5--------------------------5-----------------5L-------5h----7h----5-------|----------------------------------------------------------------------------|----------------------------------------------------------------------------|----------------------------------------------------------------------------|
----------------------------|----------------------------|----------------------------|----------------------------|--3--------3-----3--5--7----|--10----10-10-10-10-10-10---|----------------------------|--10----10-10-10-10-10-10---|----------------------------|----------------------------|----------------------------|----------------------------|
----------------------------------------------------------------------------|----------------------------------------------------------------------------|--7--------------------------7-----------------7L-------7h----9h----7-------|----------------------------------------------------------------------------|----------------------------------------------------------------------------|----------------------------------------------------------------------------|
----------------------------------------------------------------------------|----------------------------------------------------------------------------|--5--------------------------5-----------------5L-------5h----7h----5-------|----------------------------------------------------------------------------|----------------------------------------------------------------------------|----------------------------------------------------------------------------|
----------------------------|----------------------------|----------------------------|----------------------------|--3--------3-----3--5--7----|--10----10-10-10-10-10-10---|----------------------------|--10----10-10-10-10-10-10---|----------------------------|----------------------------|----------------------------|----------------------------|
----------------------------------------------------------------------------|----------------------------------------------------------------------------|--7--------------------------7-----------------7L-------7h----9h----7-------|----------------------------------------------------------------------------|----------------------------------------------------------------------------|----------------------------------------------------------------------------|
----------------------------------------------------------------------------|----------------------------------------------------------------------------|--5--------------------------5-----------------5L-------5h----7h----5-------|----------------------------------------------------------------------------|----------------------------------------------------------------------------|----------------------------------------------------------------------------|
----------------------------|----------------------------|----------------------------|----------------------------|--3--------3-----3--5--7----|--10----10-10-10-10-10-10---|----------------------------|--10----10-10-10-10-10-10---|----------------------------|----------------------------|----------------------------|----------------------------|
----------------------------------------------------------------------------|----------------------------------------------------------------------------|--7--------------------------7-----------------7L-------7h----9h----7-------|----------------------------------------------------------------------------|----------------------------------------------------------------------------|----------------------------------------------------------------------------|
----------------------------------------------------------------------------|----------------------------------------------------------------------------|--5--------------------------5-----------------5L-------5h----7h----5-------|----------------------------------------------------------------------------|----------------------------------------------------------------------------|----------------------------------------------------------------------------|
----------------------------|----------------------------|----------------------------|----------------------------|--3--------3-----3--5--7----|--10----10-10-10-10-10-10---|----------------------------|--10----10-10-10-10-10-10---|----------------------------|----------------------------|----------------------------|----------------------------|
----------------------------------------------------------------------------|----------------------------------------------------------------------------|--7--------------------------7-----------------7L-------7h----9h----7-------|----------------------------------------------------------------------------|----------------------------------------------------------------------------|----------------------------------------------------------------------------|
----------------------------------------------------------------------------|----------------------------------------------------------------------------|--5--------------------------5-----------------5L-------5h----7h----5-------|----------------------------------------------------------------------------|----------------------------------------------------------------------------|----------------------------------------------------------------------------|
----------------------------|----------------------------|----------------------------|----------------------------|--3--------3-----3--5--7----|--10----10-10-10-10-10-10---|----------------------------|--10----10-10-10-10-10-10---|----------------------------|----------------------------|----------------------------|----------------------------|
----------------------------------------------------------------------------|----------------------------------------------------------------------------|--7--------------------------7-----------------7L-------7h----9h----7-------|----------------------------------------------------------------------------|----------------------------------------------------------------------------|----------------------------------------------------------------------------|
----------------------------------------------------------------------------|----------------------------------------------------------------------------|--5--------------------------5-----------------5L-------5h----7h----5-------|----------------------------------------------------------------------------|----------------------------------------------------------------------------|----------------------------------------------------------------------------|
----------------------------|----------------------------|-------|-------|----------------------------|----------------------------|-------|-------|--3--------3-----3--5--7----|--10----10-10-10-10-10-10---|-------|-------|----------------------------|--10----10-10-10-10-10-10---|--0L---|--0L---|----------------------------|----------------------------|--0L---|--0L---|----------------------------|----------------------------|--0L---|--0L---|
-------|-------||-------|-------||-------|-------||--0L---|--0----||--0L---|--0----||--0L---|--0----||___________________________________________________________________________________________________________________________________________________________________________________________________________________________________________________________________________________________________________________________________________________
Guitar 2 Legend L - tied note x - dead note h - hammer on/pull off b - bend s - slide ~ - vibrato g - ghost note > - accentuated note t - trill M - palm mute . - staccato P - popping (bass) S - slapping (bass) + - tapping W - wide vibrato < - fade in w - whammy bar = - tremolo picking v - brush up ^ - brush down V - pick stroke up n - pick stroke down
E |-------|-------|-------|----------------------------|-------|-------|-------|B |-------|-------|-------|----------------------------|-------|-------|-------|G |-------|-------|-------|----------------------------|-------|-------|-------|D |--0----|--8----|--0----|--10L---------10-------10---|--0----|--8----|--0----|A |--0----|--8----|--0----|--10L---------10-------10---|--0----|--8----|--0----|D |--0----|--8----|--0----|--10L---------10-------10---|--0----|--8----|--0----|
----------------------------|----------------------------|----------------------------|----------------------------|----------------------------|----------------------------|--10------------------------|--0-----0M-0M-0M-0M-0M-0M---|--10------------------------|--0-----0M-0M-0M-0M-0M-0M---|--10------------------------|--0-----0M-0M-0M-0M-0M-0M---|
----------------------------|----------------------------|----------------------------|----------------------------|----------------------------|----------------------------|--8-----8M-8M-8M-8M-8M-8M---|--0-----0M-0M-0M-0M-0M-0M---|--8-----8M-8M-8M-8M-8M-8M---|--0-----0M-0M-0M-0M-0M-0M---|--8-----8M-8M-8M-8M-8M-8M---|--0-----0M-0M-0M-0M-0M-0M---|
----------------------------|----------------------------|----------------------------|----------------------------|----------------------------|----------------------------|--10----10M10M10M10M10M10M--|--0-----0M-0M-0M-0M-0M-0M---|--10----10M10M10M10M10M10M--|--0-----0M-0M-0M-0M-0M-0M---|--10----10M10M10M10M10M10M--|--0-----0M-0M-0M-0M-0M-0M---|
----------------------------|----------------------------|----------------------------|----------------------------|----------------------------|----------------------------|--8-----8M-8M-8M-8M-8M-8M---|--0-----0M-0M-0M-0M-0M-0M---|--8-----8M-8M-8M-8M-8M-8M---|--0-----0M-0M-0M-0M-0M-0M---|--8-----8M-8M-8M-8M-8M-8M---|--0-----0M-0M-0M-0M-0M-0M---|
----------------------------|----------------------------|----------------------------|----------------------------|----------------------------|-----------2--0.------------|--10----10M10M10M10M10M10M--|--0--0M-0M----------3-------|--10----10M10M10M10M10M10M--|--0--0M-0M------------------|--10----10M10M10M10M10M10M--|--0--0M-0M------------------|
----------------------------|----------------------------|----------------------------|----------------------------|--0--------2--0.------------|-----------2--0.------------|-----0M-0M----------3-------|--0--0M-0M----------3-------|-----0M-0M------------------|-----0M-0M------------------|-----0M-0M------------------|-----0M-0M------------------|
----------------------------|----------------------------|----------------------------|----------------------------|--0-------------------------|-----------2--0.------------|-----0--0-------------------|--0--0M-0M----------3-------|-----0-----3--1--0----------|--0--0M-0M------------------|-----0--------------5--3----|--0--0M-0M------------------|
----------------------------|----------------------------|----------------------------|----------------------------|--0--------2--0.------------|-----------2--0.------------|-----0M-0M----------3-------|--0--0M-0M----------3-------|-----0M-0M------------------|-----0M-0M------------------|-----0M-0M------------------|-----0M-0M------------------|
------------------------------------------------------------------------------------------------------------------------------------------------------------------0-------------------------------------------------------------------------------------------0-----------0-----------------------------------0-----------0s-2----------------0-----------------------3-----------1-------------------------------------------0-----------------------------------------------------------------
-----------------------|----------------------------|-----------------------|----------------------------|-----------------------|-----------2--0.------------|-----------------------|--0--0M-0M----------3-------|-----------------------|--0--0M-0M------------------|-----------------------|--0--0M-0M------------------|
----------------------------|----------------------------|----------------------------|----------------------------|--0--------2--0.------------|-----------2--0.------------|-----0M-0M----------3-------|--0--0M-0M----------3-------|-----0M-0M------------------|-----0M-0M------------------|-----0M-0M------------------|-----0M-0M------------------|
----------------------------|----------------------------|----------------------------|----------------------------|--0-------------------------|-----------2--0.------------|-----0--0-------------------|--0--0M-0M----------3-------|-----0-----3--1--0----------|--0--0M-0M------------------|-----0--------------5--3----|--0--0M-0M------------------|
----------------------------|----------------------------|----------------------------|----------------------------|--0--------2--0.------------|-----------2--0.------------|-----0M-0M----------3-------|--0--0M-0M----------3-------|-----0M-0M------------------|-----0M-0M------------------|-----0M-0M------------------|-----0M-0M------------------|
------------------------------------------------------------------------------------------------------------------------------------------------------------------0-------------------------------------------------------------------------------------------0-----------0-----------------------------------0-----------0s-2----------------0-----------------------3-----------1-------------------------------------------0-----------------------------------------------------------------
-----------------------|----------------------------|-----------------------|----------------------------|-----------------------|----------------------------|-----------------------|--0-----0M-0M-0M-0M-0M-0M---|-----------------------|--0-----0M-0M-0M-0M-0M-0M---|-----------------------|--0-----0M-0M-0M-0M-0M-0M---|
----------------------------|----------------------------|----------------------------|----------------------------|----------------------------|----------------------------|--8-----8M-8M-8M-8M-8M-8M---|--0-----0M-0M-0M-0M-0M-0M---|--8-----8M-8M-8M-8M-8M-8M---|--0-----0M-0M-0M-0M-0M-0M---|--8-----8M-8M-8M-8M-8M-8M---|--0-----0M-0M-0M-0M-0M-0M---|
----------------------------|----------------------------|----------------------------|----------------------------|----------------------------|----------------------------|--10----10M10M10M10M10M10M--|--0-----0M-0M-0M-0M-0M-0M---|--10----10M10M10M10M10M10M--|--0-----0M-0M-0M-0M-0M-0M---|--10----10M10M10M10M10M10M--|--0-----0M-0M-0M-0M-0M-0M---|
----------------------------|----------------------------|----------------------------|----------------------------|----------------------------|----------------------------|--8-----8M-8M-8M-8M-8M-8M---|--0-----0M-0M-0M-0M-0M-0M---|--8-----8M-8M-8M-8M-8M-8M---|--0-----0M-0M-0M-0M-0M-0M---|--8-----8M-8M-8M-8M-8M-8M---|--0-----0M-0M-0M-0M-0M-0M---|
----------------------------|----------------------------|----------------------------|----------------------------|----------------------------|----------------------------|--10----10M10M10M10M10M10M--|--0-----0M-0M-0M-0M-0M-0M---|--10----10M10M10M10M10M10M--|--0-----0M-0M-0M-0M-0M-0M---|--10----10M10M10M10M10M10M--|--0-----0M-0M-0M-0M-0M-0M---|
----------------------------|----------------------------|----------------------------|----------------------------|----------------------------|----------------------------|--8-----8M-8M-8M-8M-8M-8M---|--0-----0M-0M-0M-0M-0M-0M---|--8-----8M-8M-8M-8M-8M-8M---|--0-----0M-0M-0M-0M-0M-0M---|--8-----8M-8M-8M-8M-8M-8M---|--0-----0M-0M-0M-0M-0M-0M---|
----------------------------|----------------------------|----------------------------|----------------------------|----------------------------|----------------------------|--10----10M10M10M10M10M10M--|--0-----0M-0M-0M-0M-0M-0M---|--10----10M10M10M10M10M10M--|--0-----0M-0M-0M-0M-0M-0M---|--10----10M10M10M10M10M10M--|--0-----0M-0M-0M-0M-0M-0M---|
----------------------------|----------------------------|----------------------------|----------------------------|----------------------------|----------------------------|--8-----8M-8M-8M-8M-8M-8M---|--0-----0M-0M-0M-0M-0M-0M---|--8-----8M-8M-8M-8M-8M-8M---|--0-----0M-0M-0M-0M-0M-0M---|--8-----8M-8M-8M-8M-8M-8M---|--0-----0M-0M-0M-0M-0M-0M---|
----------------------------|----------------------------|----------------------------|----------------------------|----------------------------|----------------------------|--10----10M10M10M10M10M10M--|--0--------0----------------|--10----10M10M10M10M10M10M--|--0--------------3----------|--10----10M10M10M10M10M10M--|--0-------------------------|
----------------------------------------------------|----------------------------------------------------|----------------------------------------------------|--3-----------0-----0M----0M----0M----0M-0M-0M------|--------------------0M----0M----0M----0M-0M-0M------|--------------------0M----0M----0M----0M-0M-0M------|
----------------------------|----------------------------|----------------------------|----------------------------|----------------------------|----------------------------|--0--------0----------------|--3-----0--3--0-------------|--0--------------3----------|-----------------3--0-------|--0-------------------------|-----------------------3----|
----------------------------|----------------------------|----------------------------|--0--------0----------------|--0--------------3----------|--0-------------------------|
----------------------------------------------------|----------------------------------------------------|----------------------------------------------------|--3-----------0-----0M----0M----0M----0M-0M-0M------|--------------------0M----0M----0M----0M-0M-0M------|--------------------0M----0M----0M----0M-0M-0M------|
----------------------------|----------------------------|----------------------------|----------------------------|----------------------------|----------------------------|--0--------0----------------|--3-----0--3--0-------------|--0--------------3----------|-----------------3--0-------|--0-------------------------|-----------------------3----|
----------------------------|----------------------------|----------------------------|--0--------0----------------|--0--------------3----------|--0-------------------------|
----------------------------------------------------|----------------------------------------------------|----------------------------------------------------|--3-----------0-----0M----0M----0M----0M-0M-0M------|--------------------0M----0M----0M----0M-0M-0M------|--------------------0M----0M----0M----0M-0M-0M------|
----------------------------|----------------------------|----------------------------|----------------------------|----------------------------|----------------------------|--0--------0----------------|--3-----0--3--0-------------|--0--------------3----------|-----------------3--0-------|--0-------------------------|-----------------------3----|
----------------------------|----------------------------|----------------------------|--0--------0----------------|--0--------------3----------|--0-------------------------|
----------------------------------------------------|----------------------------------------------------|----------------------------------------------------|--3-----------0-----0M----0M----0M----0M-0M-0M------|--------------------0M----0M----0M----0M-0M-0M------|--------------------0M----0M----0M----0M-0M-0M------|
----------------------------|----------------------------|----------------------------|----------------------------|----------------------------|----------------------------|--0--------0----------------|--3-----0--3--0-------------|--0--------------3----------|-----------------3--0-------|--0-------------------------|-----------------------3----|
----------------------------|----------------------------|----------------------------|----------------------------|----------------------------|----------------------------|--7--------7-----7--7-------|--5--------5-----5--5-------|--5--------5-----5--5-------|--3--------3-----3--3-------|----------------------------|----------------------------|
----------------------------|----------------------------|----------------------------|----------------------------|----------------------------|----------------------------|--3--------3-----3--3-------|--5--------5-----5--5-------|--1--------1-----1--1-------|--3--------3-----3--3-------|----------------------------|----------------------------|
----------------------------|----------------------------|----------------------------|----------------------------|----------------------------|----------------------------|--7--------7-----7--7-------|--5--------5-----5--5-------|--5--------5-----5--5-------|--3--------3-----3--3-------|----------------------------|----------------------------|
----------------------------|----------------------------|----------------------------|----------------------------|----------------------------|----------------------------|--3--------3-----3--3-------|--5--------5-----5--5-------|--1--------1-----1--1-------|--3--------3-----3--3-------|----------------------------|----------------------------|
----------------------------|----------------------------|----------------------------|----------------------------|----------------------------|----------------------------|--7--------7-----7--7-------|--5--------5-----5--5-------|--5--------5-----5--5-------|--3--------3-----3--3-------|----------------------------|----------------------------|
----------------------------|----------------------------|----------------------------|----------------------------|----------------------------|----------------------------|--3--------3-----3--3-------|--5--------5-----5--5-------|--1--------1-----1--1-------|--3--------3-----3--3-------|----------------------------|----------------------------|
----------------------------|----------------------------|----------------------------|----------------------------|----------------------------|----------------------------|--7--------7-----7--7-------|--5--------5-----5--5-------|--5--------5-----5--5-------|--3--------3-----3--3-------|----------------------------|----------------------------|
----------------------------|----------------------------|----------------------------|----------------------------|----------------------------|----------------------------|--3--------3-----3--3-------|--5--------5-----5--5-------|--1--------1-----1--1-------|--3--------3-----3--3-------|----------------------------|----------------------------|
----------------------------|----------------------------|----------------------------|----------------------------|-----------2--0.------------|--0--------2--0.------------|--0--0M-0M----------3-------|-----0M-0M----------3-------|--0--0M-0M------------------|-----0M-0M------------------|--0--0M-0M------------------|-----0M-0M------------------|
----------------------------|----------------------------|----------------------------|----------------------------|-----------2--0.------------|--0-------------------------|--0--0M-0M----------3-------|-----0--0-------------------|-----0M-0M------------------|-----0-----3--1--0----------|-----0M-0M------------------|-----0--------------5--3----|
----------------------------|----------------------------|----------------------------|----------------------------|-----------2--0.------------|--0--------2--0.------------|--0--0M-0M----------3-------|-----0M-0M----------3-------|--0--0M-0M------------------|-----0M-0M------------------|--0--0M-0M------------------|-----0M-0M------------------|
----------------------------|----------------------------|-----------2--0.------------|--0--0M-0M----------3-------|-----0M-0M------------------|-----0M-0M------------------|
------------------------------------------------------------------------------------------------------------------------------------------------------------------0-------------------------------------------------------------------------------------------0-----------0-----------------------------------0-----------0s-2----------------0-----------------------3-----------1-------------------------------------------0-----------------------------------------------------------------
-----------------------|-------|-------|-------|----------------------------|-----------------------|-------|-------|-------|----------------------------|-----------------------|-------|-------|-------|----------------------------|-----------------------|--0----|--8----|--0----|--10L---------10-------10---|-----------------------|--0----|--8----|--0----|--10L---------10-------10---|-----------------------|--0----|--8----|--0----|--10L---------10-------10---|
----------------------------|----------------------------|----------------------------|----------------------------|----------------------------|----------------------------|--0-----0M-0M-0M-0M-0M-0M---|--0M-0M-0M-0M-0M-0M-0M-0M---|--0-----0M-0M-0M-0M-0M-0M---|--0M-0M-0M-0M-0M-0M-0M-0M---|--0-----0M-0M-0M-0M-0M-0M---|--0M-0M-0M-0M-0M-0M-0M-0M---|
----------------------------|----------------------------|----------------------------|----------------------------|----------------------------|----------------------------|--0M-0M-0M-0M-0M-0M-0M-0M---|--0M-0M-0M-10----14----10---|--0M-0M-0M-0M-0M-0M-0M-0M---|--0M-0M-0M-10----14----10---|--0M-0M-0M-0M-0M-0M-0M-0M---|--0M-0M-0M-10----14----10---|
----------------------------|----------------------------|----------------------------|----------------------------|----------------------------|----------------------------|--12----0M-0M-0M-0M-0M-0M---|--0M-0M-0M-0M-0M-0M-0M-0M---|--12----0M-0M-0M-0M-0M-0M---|--0M-0M-0M-0M-0M-0M-0M-0M---|--12----0M-0M-0M-0M-0M-0M---|--0M-0M-0M-0M-0M-0M-0M-0M---|
----------------------------|----------------------------|----------------------------|--0M-0M-0M-0M-0M-0M-0M-0M---|--0M-0M-0M-0M-0M-0M-0M-0M---|--0M-0M-0M-0M-0M-0M-0M-0M---|
----------------------------------------------------|----------------------------------------------------|----------------------------------------------------|--0M----0M----0M-10----------14----------10---------|--0M----0M----0M-10----------14----------10---------|--0M----0M----0M-10----------14----------10---------|
----------------------------|----------------------------|----------------------------|----------------------------|----------------------------|----------------------------|--12----0M-0M-0M-0M-0M-0M---|--0M-0M-0M-0M-0M-0M-0M-0M---|--12----0M-0M-0M-0M-0M-0M---|--0M-0M-0M-0M-0M-0M-0M-0M---|--12----0M-0M-0M-0M-0M-0M---|--0M-0M-0M-0M-0M-0M-0M-0M---|
----------------------------|----------------------------|----------------------------|--0M-0M-0M-0M-0M-0M-0M-0M---|--0M-0M-0M-0M-0M-0M-0M-0M---|--0M-0M-0M-0M-0M-0M-0M-0M---|
----------------------------------------------------|----------------------------------------------------|----------------------------------------------------|--0M----0M----0M-10----------14----------10---------|--0M----0M----0M-10----------14----------10---------|--0M----0M----0M-10----------14----------10---------|
----------------------------|----------------------------|----------------------------|----------------------------|----------------------------|----------------------------|--12----0M-0M-0M-0M-0M-0M---|--0M-0M-0M-0M-0M-0M-0M-0M---|--12----0M-0M-0M-0M-0M-0M---|--0M-0M-0M-0M-0M-0M-0M-0M---|--12----0M-0M-0M-0M-0M-0M---|--0M-0M-0M-0M-0M-0M-0M-0M---|
----------------------------|----------------------------|----------------------------|--0M-0M-0M-0M-0M-0M-0M-0M---|--0M-0M-0M-0M-0M-0M-0M-0M---|--0M-0M-0M-0M-0M-0M-0M-0M---|
----------------------------------------------------|----------------------------------------------------|----------------------------------------------------|--0M----0M----0M-10----------14----------10---------|--0M----0M----0M-10----------14----------10---------|--0M----0M----0M-10----------14----------10---------|
----------------------------|----------------------------|----------------------------|----------------------------|----------------------------|----------------------------|--12----0M-0M-0M-0M-0M-0M---|--0M-0M-0M-0M-0M-0M-0M-0M---|--12----0M-0M-0M-0M-0M-0M---|--0M-0M-0M-0M-0M-0M-0M-0M---|--12----0M-0M-0M-0M-0M-0M---|--0M-0M-0M-0M-0M-0M-0M-0M---|
----------------------------|----------------------------|----------------------------|--0M-0M-0M-0M-0M-0M-0M-0M---|--0M-0M-0M-0M-0M-0M-0M-0M---|--0M-0M-0M-0M-0M-0M-0M-0M---|
----------------------------------------------------|----------------------------------------------------|----------------------------------------------------|--0M----0M----0M-10----------14----------10---------|--0M----0M----0M-10----------14----------10---------|--0M----0M----0M-10----------14----------10---------|
----------------------------|----------------------------|----------------------------|----------------------------|----------------------------|----------------------------|--7--------7-----7--7-------|--5--------5-----5--5-------|--5--------5-----5--5-------|--3--------3-----3--3-------|----------------------------|----------------------------|
----------------------------|----------------------------|----------------------------|----------------------------|----------------------------|----------------------------|--3--------3-----3--3-------|--5--------5-----5--5-------|--1--------1-----1--1-------|--3--------3-----3--3-------|----------------------------|----------------------------|
----------------------------|----------------------------|----------------------------|----------------------------|----------------------------|----------------------------|--7--------7-----7--7-------|--5--------5-----5--5-------|--5--------5-----5--5-------|--3--------3-----3--3-------|----------------------------|----------------------------|
----------------------------|----------------------------|----------------------------|----------------------------|----------------------------|----------------------------|--3--------3-----3--3-------|--5--------5-----5--5-------|--1--------1-----1--1-------|--3--------3-----3--3-------|----------------------------|----------------------------|
----------------------------|----------------------------|----------------------------|----------------------------|----------------------------|----------------------------|--7--------7-----7--7-------|--5--------5-----5--5-------|--5--------5-----5--5-------|--3--------3-----3--3-------|----------------------------|----------------------------|
----------------------------|----------------------------|----------------------------|----------------------------|----------------------------|----------------------------|--3--------3-----3--3-------|--5--------5-----5--5-------|--1--------1-----1--1-------|--3--------3-----3--3-------|----------------------------|----------------------------|
----------------------------|----------------------------|----------------------------|----------------------------|----------------------------|----------------------------|--7--------7-----7--7-------|--5--------5-----5--5-------|--5--------5-----5--5-------|--3--------3-----3--3-------|----------------------------|----------------------------|
----------------------------|----------------------------|----------------------------|----------------------------|----------------------------|----------------------------|--3--------3-----3--3-------|--5--------5-----5--5-------|--1--------1-----1--1-------|--3--------3-----3--3-------|----------------------------|----------------------------|
----------------------------|----------------------------|----------------------------|----------------------------|----------------------------|----------------------------|--7--------7-----7--7-------|--5--------5-----5--5-------|--5--------5--
Tap to rate this tab
 
# A B C D E F G H I J K L M N O P Q R S T U V W X Y Z