Hate Eternal - Two Demons tab

Band:  Hate Eternal
Album: I, Monarch
Song:  Two Demons

Copyright (c) EARACHE 2005
Version 1.1

.  - palm mute           /  - slide up to
\  - slide down to       ~  - vibrato
h  - hammer on           b  - Bend
p  - pull off            Suffixes for bend
t  - tap                 f  - full bend    h - half bend
ph - pinched harmonic    q  - quarter bend t - tap bend
*  - see comment         ^  - Hold bend    r release bend
x  - Stuccatto           ~  - vibrato bend
,  - slight palm mute    () - ghost note, sustained note
"  - tremolo note        <> - Trill

Tune 3 half Stepps down to: C#, F#, B, E, G#, C#

guitar 1 = left channel
guitar 2 = right channel

RIFF 1 (0:00) guitar 1|------------------------------------------------------||------------------------------------------------------||-------12-\-9---------13-\-8---------14-\-7---8---444-||----------------------------------------------7---333-||-------10-\-7---------11-\-6---------12-\-5---6---222-||-0-000----------0-000----------0-000----------5---111-| . ... . ... . ...
endings 1,2 & 4 --------------------------------------------------|| --------------------------------------------------|| -------12-\-9---------13-\-7---8---444-3-/-121212-|| -------------------------------7---333-2-/-111111-|| -------10-\-7---------11-\-5---6---222-1-/-101010-|| -0-000----------0-000----------5---111-0---9-9-9--|| . ... . ...
endings 3 & 5 --------------------------------------------------|| --------------------------------------------------|| -------12-\-9---------13-\-7---8---4---6~---------|| -------------------------------7---3---5~---------|| -------10-\-7---------11-\-5---6---2---4~---------|| -0-000----------0-000----------5---1---3~---------|| . ... . ...
RIFF 1b (0:00) guitar 2Only first time|----------------------------------------------------------||----------------------------------------------------------||----------------------------------------------14---101010-||-------7-/-10---------6-/-11---------5-/-13---13---9-9-9--||----------------------------------------------12---8-8-8--||-0-----5-/-8----0-----4-/-9----0-----3-/-11---11---7-7-7--| . . .
|-------------------------------------------------------|||-------------------------------------------------------|||-------------------------------14---101010-12---121212-|||-------7-/-10---------6-/-13---13---9-9-9--11---111111-|||-------------------------------12---8-8-8--10---101010-|||-0-----5-/-8----0-----4-/-11---11---7-7-7--9-----------|| . .
continue... (guitar 2)|----------------------------------------------------------||----------------------------------------------------------||----------------------------------------------14---101010-||-------7-/-10---------6-/-11---------5-/-13---13---9-9-9--||----------------------------------------------12---8-8-8--||-0-000-5-/-8----0-000-4-/-9----0-000-3-/-11---11---7-7-7--| . ... . ... . ...
endings 2 & 4|-------------------------------------------------------|||-------------------------------------------------------|||-------------------------------14---101010-12---121212-|||-------7-/-10---------6-/-13---13---9-9-9--11---111111-|||-------------------------------12---8-8-8--10---101010-|||-0-000-5-/-8----0-000-4-/-11---11---7-7-7--9-----------|| . ... . ...
ending 3|-------------------------------------------------------|||-------------------------------------------------------|||-------------------------------14---10---9~------------|||-------7-/-10---------6-/-13---13---9----8~------------|||-------------------------------12---8----7~------------|||-0-000-5-/-8----0-000-4-/-11---11---7----6~------------|| . ... . ...
ending 5|-------------------------------------------------------|||-------------------------------------------------------|||-------------------------------14---10---9~---4--------|||-------7-/-10---------6-/-13---13---9----8~---3--------|||-------------------------------12---8----7~---2--------|||-0-000-5-/-8----0-000-4-/-11---11---7----6~---1--------|| . ... . ...
RIFF 2 (0:32) guitar 1|---------------------------------------------------||---------------------------------------------------||---------------------------------------------------||-66666655------555555------------------------------||---------777777------666666-4----------------------||----------------------------2---005555552255444444-| .
--------------------------------------------------| --------------------------------------------------| --------------------------------------------------| -555544------444444------333333-------------6-\---| -------666666------555555-------------------------| --------------------------------0-2-1-2-4-3-4-\---| . . . . . .
---------------------------------------------------| ---------------------------------------------------| ---------------------------------------------------| -66666655------555555------------------------------| ---------777777------666666-4----------------------| ----------------------------2---005555552255444444-| .
----------------------------------------------------|| ----------------------------------------------------|| ----------------------------------------------------|| -444433------333333------222222-------------6---3---|| -------555555------444444---------------------------|| --------------------------------0-2-1-2-4-3-4---1---||
. . . . . .RIFF 2 (0:32) guitar 2|---------------------------------------------------||---------------------------------------------------||-4-------------------6-----------------------------||-3-------------------5-----------------------------||-2-------------------4------4----------------------||-1-------------------3------2---005555552255444444-| .
--------------------------------------------------| --------------------------------------------------| --------------------------------------------------| -555544------444444------333333-------------6-\---| -------666666------555555-------------------------| --------------------------------0-2-1-2-4-3-4-\---| . . . . . .
---------------------------------------------------| ---------------------------------------------------| ---------------------------------------------------| -66666655------555555------------------------------| ---------777777------666666-4----------------------| ----------------------------2---005555552255444444-| .
----------------------------------------------------| ----------------------------------------------------| ----------------------------------------------------| -444433------333333------222222-------------6---3---| -------555555------444444---------------------------| --------------------------------0-2-1-2-4-3-4---1---|
. . . . . .continue (guitar 2 only...)|---------------------------------------------------||---------------------------------------------------||---------------------444444------------------------||-66666655------555555------------------------------||---------777777-------------4----------------------||----------------------------2---005555552255444444-| .
--------------------------------------------------| --------------------------------------------------| -------------------------666666-------------------| -555544------444444-------------------------6-\---| -------666666------555555-------------------------| --------------------------------0-2-1-2-4-3-4-\---|
. . . . . . ---------------------------------------------------| ---------------------------------------------------| ---------------------444444------------------------| -66666655------555555------------------------------| ---------777777-------------4----------------------| ----------------------------2---005555552255444444-| .
----------------------------------------------------|| ----------------------------------------------------|| -------------------------555555---------------------|| -444433------333333-------------------------9---6---|| -------555555------444444---------------------------|| --------------------------------0-2-1-2-4-3-7---4---|| . . . . . .
RIFF 3 (0:58) both guitars|----------------------------------------------------------------------||----------------------------------------------------------------------||----------------------------------------------------------------------||-------------6-----10-\-7-------------6-\-3-----10101010\-7---7---7-7-||----------------------------------------------------------------------||-0-2-1-2-4-3-4---1-8--\-5-0-2-1-2-4-3-4-\-1-----8-8-8-8-\-5-5-5-5-5-5-| . . . . . . . . . . . .
------------------------------------------------| ------------------------------------------------| ------------------------------------------------| -------------6-\-3---------------6-----10/11-10-| ------------------------------------------------| -0-2-1-2-4-3-4-\-1---0-2-1-2-4-3-4---1-8-/9--8--| . . . . . . . . . . . .
----------------------------------------------------|| ----------------------------------------------------|| ----------------------------------------------------|| -------------6-\-3-----10-10-10/11-10-----9/14-\-11-|| ----------------------------------------------------|| -0-2-1-2-4-3-4-\-1-----8--8--8-/9--8--7-7-7/12-\-9--|| . . . . . .
again RIFF 2 (1:10) again RIFF 3 (1:36)
continue RIFF 3 (1:48) guitar 1|--------------------------------------------------------------------||--------------------------------------------------------------------||--------------------------------------------------------------------||-------------6---3---------------6-----10-\-7-------------6-\-3-----||--------------------------------------------------------------------||-0-2-1-2-4-3-4---1---0-2-1-2-4-3-4---1-8--\-5-0-2-1-2-4-3-4-\-1-----| . . . . . . . . . . . . . . . . . .
-----------------------------------------------------------------------| -----------------------------------------------------------------------| -----------------------------------------------------------------------| -10101010\-7---7---7-7--------------6-\-3---------------6-----10/11-10-| -----------------------------------------------------------------------| -8-8-8-8-\-5-5-5-5-5-5--0-2-1-2-4-3-4-\-1---0-2-1-2-4-3-4---1-8-/9--8--| . . . . . . . . . . . .
----------------------------------------------------|| ----------------------------------------------------|| ----------------------------------------------------|| -------------6-\-3-----10-10-10/11-10-----9/14-\-11-|| ----------------------------------------------------|| -0-2-1-2-4-3-4-\-1-----8--8--8-/9--8--7-7-7/12-\-9--|| . . . . . .
continue RIFF 3b (1:48) guitar 2|-------------------------------------------------------------------||-------------------------------------------------------------------||-------------------------------------------------------------------||-------------9---6---------------9---6-------------------9-\-6-----||---------------------------------------66663-----------------------||-0-2-1-2-4-3-7---4---0-2-1-2-4-3-7---4-------0-2-1-2-4-3-7-\-4-----| . . . . . . . . . . . . . . . . . .
---------------------------------------------------------------------------| ---------------------------------------------------------------------------| ---------------------------------------------------------------------------| -10101010\-7---7---7-7--------------9-\-6---------------9---6--------------| ---------------------------------------------------------------------------| -8-8-8-8-\-5-5-5-5-5-5--0-2-1-2-4-3-7-\-4---0-2-1-2-4-3-7---4-101010101010-| . . . . . . . . . . . .
----------------------------------------------------|| ----------------------------------------------------|| ----------------------------------------------------|| -------------9-\-6-----10-10-10/11-10-----9/14-\-11-|| ----------------------------------------------------|| -0-2-1-2-4-3-7-\-4-----8--8--8-/9--8--7-7-7/12-\-9--|| . . . . . .
BREAK (2:02) both guitars|------------------------|||------------------------|||------------------------|||-66666655------555555---|||---------777777------66-|||------------------------||
RIFF 4 (2:03) guitar 1 (guitar 1 always playing this figure)|-------------------------------------------------------------------------||-------------------------------------------------------------------------||-6-----6-----6-----6-----6-----6-----6-----6-----4-----4-----4-----4-----||-------------------------------------------------------------------------||-------------------------------------------------------------------------||---3-3---3-3---3-3---3-3---3-3---3-3---3-3---3-3---3-3---3-3---3-3---3-3-|
-------------------------|| -------------------------|| -------------------------|| -5-----5-----5-----5-----|| -------------------------|| ---3-3---3-2---0-0---2-0-|| . . . . . . . .
RIFF 4 (2:03) guitar 2|-------------------------------------------------------------------------||-------------------------------------------------------------------------||-6-----6-----6-----6-----6-----6-----6-----6-----4-----4-----4-----4-----||-------------------------------------------------------------------------||-------------------------------------------------------------------------||---3-3---3-3---3-3---3-3---3-3---3-3---3-3---3-3---3-3---3-3---3-3---3-3-|
-------------------------|| -------------------------|| -------------------------|| -5-----5-----5-----5-----|| -------------------------|| ---3-3---3-2---0-0---2-0-|| . . . . . . . .
RIFF 4b (2:10) guitar 2|-------------------------------------------------------------------------||-------------------------5-----5-----5-----5-----------------------------||-6-----6-----6-----6-----------------------------4-----4-----4-----4-----||-------------------------------------------------------------------------||-------------------------------------------------------------------------||---3-3---3-3---3-3---3-3---3-3---3-3---3-3---3-3---3-3---3-3---3-3---3-3-|
-------------------------|| -------------------------|| -------------------------|| -5-----5-----5-----5-----|| -------------------------|| ---3-3---3-2---0-0---2-0-||
. . . . . . . .RIFF 4c (2:10) guitar 2|--------------------------------------------------------------------------||--------------------------------------------------------------------------||--------------------------------------------------------------------------||--------------------------------------------------------------------------||-8888888888888888888888554444444444444444444444775555552222222222222222222||--------------------------------------------------------------------------|
-----------------------------------------------------------------------| -----------------------------------------------------------------------| -----------------------------------------------------------------------| -----------------------------------------------------------------------|
-222222222222222222222228888888888888888888888554444444444444444444444-| -----------------------------------------------------------------------|
----------------------------------------------------|| ----------------------------------------------------|| ----------------------------------------------------|| ----------------------------------------------------|| -55555555-------------------------------------------|| ---------666666666666666666666666666666666666666666-||
SOLO (2:29)
RHYTHM / RIFF 5 (2:29)|-------------------------------------------------||-------------------------------------------------||-------------------------------------------------||-3-----4---5-4-----4---3-4-----4---5-4-----4-----||-------------------------------------------------||-1-222-2-2-3-2-222-2-2-1-2-222-2-2-3-2-222-2-000-|
----------------------------------------------------| ----------------------------------------------------| ----------------------------------------------------| -3/4-3/6-3/5-4------------3/4-3-3-3/4-5-4/5-6-------| ----------------------------------------------------| -1/2-1/4-1/3-2-1111111111-1/2-1-1-1/2-3-2/3-4-00000-| .......... .....
-------------------------------------------------| -------------------------------------------------| -------------------------------------------------| -3-----4---5-4-----4---3-4-----4---5-4-----4-----| -------------------------------------------------| -1-222-2-2-3-2-222-2-2-1-2-222-2-2-3-2-222-2-000-|
-------------------------------------------------|| -------------------------------------------------|| -------------------------------------------------|| -------------3-----------------------3-----------|| -------------------------------------------/9~---|| -1-2-1-0-1-3-1-3-2-1-0-0-1-2-1-0-1-0-1-0-0-------||
again RIFF 4 (2:55)
RIFF 1 (3:21) guitar 1|------------------------------------------------------||------------------------------------------------------||-------12-\-9---------13-\-8---------14-\-7---8---444-||----------------------------------------------7---333-||-------10-\-7---------11-\-6---------12-\-5---6---222-||-0-000----------0-000----------0-000----------5---111-| . ... . ... . ...
---------------------------------------------------|| ---------------------------------------------------|| -------12-\-9---------13-\-7---8---4---6~---6~-----|| -------------------------------7---3---5~---5~-----|| -------10-\-7---------11-\-5---6---2---4~---4~-----|| -0-000----------0-000----------5---1---3~---3~-----|| . ... . ...
RIFF 1b (3:21) guitar 2|----------------------------------------------------------||----------------------------------------------------------||----------------------------------------------14---101010-||-------7-/-10---------6-/-11---------5-/-13---13---9-9-9--||----------------------------------------------12---8-8-8--||-0-----5-/-8----0-----4-/-9----0-----3-/-11---11---7-7-7--| . . .
|-----------------------------------------------------|||-----------------------------------------------------|||-------------------------------14---10---4~---4~-----|||-------7-/-10---------6-/-13---13---9----3~---3~-----|||-------------------------------12---8----2~---2~-----|||-0-----5-/-8----0-----4-/-11---11---7----1~---1~-----|| . .
again RIFF 2 (3:27)
ending for guitar 1... (3:49) --------------------------------|| --------------------------------|| --------------------------------|| -444433------333333-------9-----|| -------555555------444444-7-----|| --------------------------------||
ending for guitar 2... (3:49) --------------------------------|| --------------------------------|| --------------------------------|| -444433------333333-------------|| -------555555------444444-3-----|| --------------------------------||
END
Tap to rate this tab
 
# A B C D E F G H I J K L M N O P Q R S T U V W X Y Z