Hate Eternal - By His Own Decree tab

Band:  Hate eternal
Album: Conquering the throne
Song:  By his own decree
tabber: ben chaffins
Copyright (c)  Wicked world 1999
Version 1.1 - February 2-12-11
.  - palm mute           /  - slide up to
\  - slide down to       ~  - vibrato
h  - hammer on           b  - Bend
p  - pull off            Suffixes for bend
t  - tap                 f  - full bend    h - half bend
ph - pinched harmonic    q  - quarter bend t - tap bend
*  - see comment         ^  - Hold bend    r release bend
x  - Stuccatto           ~  - vibrato bend
,  - slight palm mute    () - ghost note, sustained note
"  - tremolo note        <> - Trill

Tuning C#


Intro guitar 1|----------------------------------------------------------------||----------------------------------------------------------------||----------------------------------------------------------------||-------------8-4-9-3--------------7-3-8-12--------------8-4-9-3-||-4-3-222-4-3----------4-3-222-4-3-----------4-3-222-4-3---------||-2-1-000-2-1-6-2-7-1--2-1-000-2-1-6-2-7-10--2-1-000-2-1-6-2-7-1-|| . . ... . . . . ... . . . . ... . . . . . .
| |
|Guitar 2|---------------------------------------------------------------||---------------------------------------------------------------||---------------------------------------------------------------||---------------------------------------------------------------||-4-3-222-4-3---------4-3-222-4-3-----------4-3-222-4-3---------||-2-1-000-2-1---------2-1-000-2-1-----------2-1-000-2-1---------| . . ... . . . . ... . . . . ... . .
Both guitars|--------------------------||--------------------------||--------------------------||--------------------------||-4-3-222-5-6--3-222-5-6---||-2-1-000-3-4--1-000-3-4---| . . ... . . . ... . .
Riff 1|-----------------------------------------------------------------------------||-----------------------------------------------------------------------------||-----------------------------------------------------------------------------||-------------88-44-99-33--------------88-44-99-1212--------------88-44-99-33-||-4-3-222-4-3--------------4-3-222-4-3----------------4-3-222-4-3-------------||-2-1-000-2-1-66-22-77-11--2-1-000-2-1-66-22-77-1010--2-1-000-2-1-66-22-77-11-| . . ... . . .. .. .. .. . . ... . . .. .. .. .. . . ... . . .. .. .. ..
(This bar is not played the last time)|--------------------------||--------------------------||--------------------------||--------------------------||-4-3-222-5-6--3-222-5-6---||-2-1-000-3-4--1-000-3-4---| . . ... . . . ... . .
Riff 2|-----------------------------------------------||-----------------------------------------------||-----------------------------------------------||-----------------------------------------------||-222-5-6-3-222-5-6-888-777-555-666-666-767-444-||-000-3-4-1-000-3-4-666-555-333-444-444-545-222-| ... . . . ... . . ... ... ... ... ... ... ...
|----------------------------------------------||----------------------------------------------||----------------------------------------------||--------------------9/10\9\6-/9-\5--8\5/7\6\5-||-222-5-6-3-222-5-6----------------------------||-000-3-4-1-000-3-4--7/8-\7\4-/7-\3--6\3/5\4\3-| ... . . . ... . .
|-----------------------------------------------------||-----------------------------------------------------||-----------------------------------------------------||-----------------------------------------------------||-222-5-6-3-222-5-6-888-777-777-888-888-999101010-999-||-000-3-4-1-000-3-4-666-555-555-666-666-777-888---777-| ... . . . ... . . ... ... ... ... ... ... ... ...
|-------------------------------------------||-------------------------------------------||-------------------------------------------||--------------------9/10\9\6-/9-\5--8\5/7~-||-222-5-6-3-222-5-6-------------------------||-000-3-4-1-000-3-4--7/8-\7\4-/7-\3--6\3/5~-| ... . . . ... . .
Riff 1Riff 1|-----------------------------------------------------------------------------||-----------------------------------------------------------------------------||-----------------------------------------------------------------------------||-------------88-44-99-33--------------88-44-99-1212--------------88-44-99-33-||-4-3-222-4-3--------------4-3-222-4-3----------------4-3-222-4-3-------------||-2-1-000-2-1-66-22-77-11--2-1-000-2-1-66-22-77-1010--2-1-000-2-1-66-22-77-11-| . . ... . . .. .. .. .. . . ... . . .. .. .. .. . . ... . . .. .. .. ..
(This bar is not played the last time)|--------------------------||--------------------------||--------------------------||--------------------------||-4-3-222-5-6--3-222-5-6---||-2-1-000-3-4--1-000-3-4---| . . ... . . . ... . .
Riff 2|-----------------------------------------------||-----------------------------------------------||-----------------------------------------------||-----------------------------------------------||-222-5-6-3-222-5-6-888-777-555-666-666-767-444-||-000-3-4-1-000-3-4-666-555-333-444-444-545-222-| ... . . . ... . . ... ... ... ... ... ... ...
|----------------------------------------------||----------------------------------------------||----------------------------------------------||--------------------9/10\9\6-/9-\5--8\5/7\6\5-||-222-5-6-3-222-5-6----------------------------||-000-3-4-1-000-3-4--7/8-\7\4-/7-\3--6\3/5\4\3-| ... . . . ... . .
|-----------------------------------------------------||-----------------------------------------------------||-----------------------------------------------------||-----------------------------------------------------||-222-5-6-3-222-5-6-888-777-777-888-888-999101010-999-||-000-3-4-1-000-3-4-666-555-555-666-666-777-888---777-| ... . . . ... . . ... ... ... ... ... ... ... ...
|-------------------------------------------||-------------------------------------------||-------------------------------------------||--------------------9/10\9\6-/9-\5--8\5/7~-||-222-5-6-3-222-5-6-------------------------||-000-3-4-1-000-3-4--7/8-\7\4-/7-\3--6\3/5~-| ... . . . ... . .
Riff 3|---------------------------------------------------------------||---------------------------------------------------------------||-7--6--3--2--2--7--6--3--2--2--3--7--6--3--2--2----------------||-------------------------------------------------6-9-5-8-7\6/7-||---------------------------------------------------------------||--98-87-54-43----98-87-54-43-43----98-87-54-43---4-7-3-6-5\4/5-|
|----------------------------------------------------------------||----------------------------------------------------------------||-7--6--3--2--2--7--6--3--2--2--3--7--6--3--2--2-----------------||-------------------------------------------------6-9-12-8-7\6/7-||----------------------------------------------------------------||--98-87-54-43----98-87-54-43-43----98-87-54-43---4-7-10-6-5\4/5-|
Riff 4 ( also under solo) Guitar 1|-----------------------------||-----------------------------||-----------------------------||-4-7-3-6-5\4/5-6-9-5-8-7\6/7-||-----------------------------||-2-5-1-4-3\2/3-4-7-3-6-5\4/5-|
| | | | |
|Guitar 2|-----------------------------||-----------------------------||-----------------------------||-6-9-5-8-7\6/7-811-710-9\8/9-||-----------------------------||-4-7-3-6-5\4/5-6-9-5-8-7\6/7-|
Solo Lead guitar 1|-------------------------------------------------------------------||-------------------------------------------------------------------||-------------------------------------------------------------------||----------------------------------------13h14p13----------13h14p13-||-------14h15p14----------14h15p14-15-16----------16-15-16----------||-15-16----------16-15-16-------------------------------------------|
| | | |
|Lead guitar 2|-------------------------------------------------------------------||-------------------------------------------------------------------||-------------------------------------------------------------------||----------------------------------------15h16p15----------15h16p15-||-------16h17p16----------16h17p16-17-18----------18-17-18----------||-17-18----------17-18-17-------------------------------------------|
Lead guitar 1------------------------------------------------------|------------------------------------------------------|-------13h14p13----------13h14p13--13-14--17--17--17~-|-14-15----------15-14-15------------------------------|------------------------------------------------------|------------------------------------------------------|
| | | At the end, the 17s and 18s are not played on top of | each other, but after each other, like it was one guitar | playing 17-18-17 etc |
|Lead guitar 2-------------------------------------------------------|-------------------------------------------------------|-------14h15p14----------14h15p14--15-16---18--18------|-16-17----------17-16-17-------------------------------|-------------------------------------------------------|-------------------------------------------------------|
Riff 3|---------------------------------------------------------------||---------------------------------------------------------------||-7--6--3--2--2--7--6--3--2--2--3--7--6--3--2--2----------------||-------------------------------------------------6-9-5-8-7\6/7-||---------------------------------------------------------------||--98-87-54-43----98-87-54-43-43----98-87-54-43---4-7-3-6-5\4/5-|
|----------------------------------------------------------------||----------------------------------------------------------------||-7--6--3--2--2--7--6--3--2--2--3--7--6--3--2--2-----------------||-------------------------------------------------6-9-12-8-7\6/7-||----------------------------------------------------------------||--98-87-54-43----98-87-54-43-43----98-87-54-43---4-7-10-6-5\4/5-|
Intro guitar 1|----------------------------------------------------------------||----------------------------------------------------------------||----------------------------------------------------------------||-------------8-4-9-3--------------7-3-8-12--------------8-4-9-3-||-4-3-222-4-3----------4-3-222-4-3-----------4-3-222-4-3---------||-2-1-000-2-1-6-2-7-1--2-1-000-2-1-6-2-7-10--2-1-000-2-1-6-2-7-1-|| . . ... . . . . ... . . . . ... . . . . . .
| |
|Guitar 2|---------------------------------------------------------------||---------------------------------------------------------------||---------------------------------------------------------------||---------------------------------------------------------------||-4-3-222-4-3---------4-3-222-4-3-----------4-3-222-4-3---------||-2-1-000-2-1---------2-1-000-2-1-----------2-1-000-2-1---------| . . ... . . . . ... . . . . ... . .
Both guitars|--------------------------||--------------------------||--------------------------||--------------------------||-4-3-222-5-6--3-222-5-6---||-2-1-000-3-4--1-000-3-4---| . . ... . . . ... . .
Riff 1|-----------------------------------------------------------------------------||-----------------------------------------------------------------------------||-----------------------------------------------------------------------------||-------------88-44-99-33--------------88-44-99-1212--------------88-44-99-33-||-4-3-222-4-3--------------4-3-222-4-3----------------4-3-222-4-3-------------||-2-1-000-2-1-66-22-77-11--2-1-000-2-1-66-22-77-1010--2-1-000-2-1-66-22-77-11-| . . ... . . .. .. .. .. . . ... . . .. .. .. .. . . ... . . .. .. .. ..
(This bar is not played the last time)|--------------------------||--------------------------||--------------------------||--------------------------||-4-3-222-5-6--3-222-5-6---||-2-1-000-3-4--1-000-3-4---| . . ... . . . ... . .
Ending
|-------------------------------------------------||-------------------------------------------------||-------------------------------------------------||-----------------------------------------------3-||-222-5-6-3-222-5-6-888-777-555-666-666-767-444---||-000-3-4-1-000-3-4-666-555-333-444-444-545-222-1-| ... . . . ... . . ... ... ... ... ... ... ...
End.
Tap to rate this tab
 
# A B C D E F G H I J K L M N O P Q R S T U V W X Y Z