Hatebreed – Beholder Of Justice tab

Hatebreed
Beholder Of Justice 
Drop C
.=palm mute
*Most of the palm mutes aren't the exact number, so just go by listening to the song.*

|Gtr. 1|----------------------------------------------------------||----------------------------------------------------------||----------------------------------------------------------||----------------------------------------------------------||-------1------0------------------1-------0----000-000-000-||00000001-000000-000000000000000001-0000000-00-000-000-000-||....... ..... ................. ...... .. ... ... ...
|
|Gtr. 2|----------------------------------------------------------||----------------------------------------------------------||----------------------------------------------------------||----------------------------------------------------------||----------------00000000000000000-------------000-000-000-||----------------00000000000000000-------------000-000-000-| ................. ... ... ...
Both Gtrs.|----------------------------------------------------------||----------------------------------------------------------||----------------------------------------------------------||----------------------------------------------------------|X4|00000001-000000-000000000000000001-0000000-00-000-000-000-||00000001-000000-000000000000000001-0000000-00-000-000-000-| ....... ..... ................. ...... .. ... ... ...
|------------------------------------------------||------------------------------------------------||5-5------------------5-5------------------------||3-3-3-4-3-1-0--------3-3-3-4-3-1-0--000-000-000-||----3-4-3-1-0------------3-4-3-1-0--000-000-000-| ... ... ...
|-----------------------------------||-----------------------------------||-----------------------------------||5-5------------------5-5-----------||3-3-3-4-3-1-0--------3-3-3-4-3-1-0-||----3-4-3-1-0------------3-4-3-1-0-|
|----------------------------------------------------------||----------------------------------------------------------||----------------------------------------------------------||----------------------------------------------------------|X4|00000001-000000-000000000000000001-0000000-00-000-000-000-||00000001-000000-000000000000000001-0000000-00-000-000-000-| ....... ..... ................. ...... .. ... ... ...
|------------------------------------------------||------------------------------------------------||------------------------------------------------||5-5------------------5-5------------------------||3-3-3-4-3-1-0--------3-3-3-4-3-1-0--000-000-000-||----3-4-3-1-0------------3-4-3-1-0--000-000-000-| ... ... ...
|-----------------------------------||-----------------------------------||-----------------------------------||5-5------------------5-5-----------||3-3-3-4-3-1-0--------3-3-3-4-3-1-0-||----3-4-3-1-0------------3-4-3-1-0-|
|----------------------||----------------------||----------------------||5-5-------------------|X3|3-3-3-4-3-1-0-0000000-||----3-4-3-1-0-0000000-| .......
|--------------||--------------||--------------||5-5-----------||3-3-3-4-3-1-0-||----3-4-3-1-0-|
|----------------------------------------------||----------------------------------------------||----------------------------------------------|\ |----------------------------------------------| \|0000---1--0-0-0---1--0-0-0---1--0-00000-00-00-| \|0000---1--0-0-0---1--0-0-0---1--0-00000-00-00-| \
.... . . . . . . . . . . ..... .. .. X3 / /|-----------------------------------------------|/|-----------------------------------------------||-----------------------------------------------||-----------------------------------------------||0000---1--0-0-0---1--0-0-0---1--0-07-010-07-06-||0000---1--0-0-0---1--0-0-0---1--0-07-010-07-06-| .... . . . . . . . . . . . . . .
|------------------------------------------------||------------------------------------------------||------------------------------------------------||5-5------------------5-5------------------------||3-3-3-4-3-1-0--------3-3-3-4-3-1-0--000-000-000-||----3-4-3-1-0------------3-4-3-1-0--000-000-000-| ... ... ...
|-----------------------------------||-----------------------------------||-----------------------------------||5-5------------------5-5-----------||3-3-3-4-3-1-0--------3-3-3-4-3-1-0-||----3-4-3-1-0------------3-4-3-1-0-|
Please rate this tab:
x1.0