Hatebreed - Destroy Everything tab version 1

                              Hatebreed - Destroy Everything

     
D||-------------------|-------------------|-----------------------|A||-------------------|-------------------|-----------------------|F||-------------------|-------------------|-----------------------|C||--0----------------|--L----------------|-----------------------|G||--0----------------|--L----------------|-----------------------|C||--0----------------|--L----------------|--0-0-0----------------|
-----------------------|-----------------------|-----------------------|-----------------------|-----------------------|-----------------------|-----------------------|-----------------------|-----------------------|-----------------------|--0-0-0----------------|--0-0-0----------------|
----------------------------------|-----------------------|----------------------------------|-----------------------|----------------------------------|-----------------------|----------------------------------|-----------------------|----------4---------4-----5---1-4-|-----------------------|--0-0-0-0---0-0-0-0---0-0---0-----|--0-0-0----------------|
-----------------------|-----------------------|-----------------------|-----------------------|-----------------------|-----------------------|-----------------------|-----------------------|-----------------------|-----------------------|--0-0-0----------------|--0-0-0----------------|
----------------------------------|-----------------------------|----------------------------------|-----------------------------|----------------------------------|-----------------------------|----------------------------------|-----------------------------|----------4---------4-----5---1-4-|---------0------1----4----3--|--0-0-0-0---0-0-0-0---0-0---0-----|--0-0-0--0--0-0-1--0-4--0-3--|
-----------------------------|-----------------------------|-----------------------------|-----------------------------|-----------------------------|-----------------------------|-----------------------------|-----------------------------|---------0------1----4----3--|---------0------1----4----3--|--0-0-0--0--0-0-1--0-4--0-3--|--0-0-0--0--0-0-1--0-4--0-3--|
----------------------------------|-----------------------------|----------------------------------|-----------------------------|----------------------------------|-----------------------------|----------------------------------|-----------------------------|----------4---------4-----5---1-4-|---------0------1----4----3--|--0-0-0-0---0-0-0-0---0-0---0-----|--0-0-0--0--0-0-1--0-4--0-3--|
-----------------------------|-----------------------------|-----------------------------|-----------------------------|-----------------------------|-----------------------------|-----------------------------|-----------------------------|---------0------1----4----3--|---------0------1----4----3--|--0-0-0--0--0-0-1--0-4--0-3--|--0-0-0--0--0-0-1--0-4--0-3--|
----------------------------------|--------------------------|----------------------------------|--------------------------|----------------------------------|--------------------------|----------------------------------|--------------------------|----------4---------4-----5---1-4-|--4---4-3-1---3---3-1-0---|--0-0-0-0---0-0-0-0---0-0---0-----|--4---4-3-1---3---3-1-0---|
-------------------------|--------------------------|-------------------------|-------------------------|--------------------------|-------------------------|-------------------------|--------------------------|-------------------------|-------------------------|--------------------------|-------------------------|--L--4-4-4-3---1----0----|--4---4-3-1---3---3-1-0---|--L--4-4-4-3---1----0----|--L--4-4-4-3---1----0----|--4---4-3-1---3---3-1-0---|--L--4-4-4-3---1----0----|
--------------------------|-------------------------|--------------------------|--------------------------|-------------------------|--------------------------|--------------------------|-------------------------|--------------------------|--------------------------|-------------------------|--------------------------|--4---4-3-1---3---3-1-0---|--L--4-4-4-3---1----0----|--4---4-3-1---3---3-1-0---|--4---4-3-1---3---3-1-0---|--L--4-4-4-3---1----0----|--4---4-3-1---3---3-1-0---|
-------------------------|-------------------|-------------------------|-------------------|-------------------------|-------------------|-------------------------|-------------------|--L--4-4-4-3---1----0----|--0----------------|--L--4-4-4-3---1----0----|--0----------------|
----------------------------------|-------------------|----------------------------------|-------------------|----------------------------------|-------------------|----------------------------------|-------------------|----------4---------4-----5---1-4-|--0----------------|--0-0-0-0---0-0-0-0---0-0---0-----|--0----------------|
----------------------------------|--------------------------|----------------------------------|--------------------------|----------------------------------|--------------------------|----------------------------------|--------------------------|----------4---------4-----5---1-4-|---------0----------------|--0-0-0-0---0-0-0-0---0-0---0-----|--0-0-0--0--------0-0-0-0-|
--------------------------|---------------------------|------------------------|--------------------------|---------------------------|------------------------|--------------------------|---------------------------|------------------------|--------------------------|---------------------------|------------------------|---------6----------------|---------4----3------------|---------1----4----3----|--0-0-0--6--------0-0-0-0-|--0-0-0--4----3----0-0-0-0-|--0-0-0--1----4----3----|
--------------------------|--------------------------|--------------------------|--------------------------|--------------------------|--------------------------|--------------------------|--------------------------|---------0----------------|---------6----------------|--0-0-0--0--------0-0-0-0-|--0-0-0--6--------0-0-0-0-|
---------------------------|------------------------|---------------------------|------------------------|---------------------------|------------------------|---------------------------|------------------------|---------4----3------------|---------1----4----3----|--0-0-0--4----3----0-0-0-0-|--0-0-0--1----4----3----|
-----------------------------|-----------------------------|-----------------------------|-----------------------------|-----------------------------|-----------------------------|-----------------------------|-----------------------------|---------0------1----4----3--|---------0------1----4----3--|--0-0-0--0--0-0-1--0-4--0-3--|--0-0-0--0--0-0-1--0-4--0-3--|
-----------------------------|----------------------------------|-----------------------------|----------------------------------|-----------------------------|----------------------------------|-----------------------------|----------------------------------|---------0------1----4----3--|----------4---------4-----5---1-4-|--0-0-0--0--0-0-1--0-4--0-3--|--0-0-0-0---0-0-0-0---0-0---0-----|
-----------------------------|-----------------------------|-----------------------------|-----------------------------|-----------------------------|-----------------------------|-----------------------------|-----------------------------|---------0------1----4----3--|---------0------1----4----3--|--0-0-0--0--0-0-1--0-4--0-3--|--0-0-0--0--0-0-1--0-4--0-3--|
-----------------------------|----------------------------------|-----------------------------|----------------------------------|-----------------------------|----------------------------------|-----------------------------|----------------------------------|---------0------1----4----3--|----------4---------4-----5---1-4-|--0-0-0--0--0-0-1--0-4--0-3--|--0-0-0-0---0-0-0-0---0-0---0-----|
--------------------------|-------------------------|--------------------------|--------------------------|-------------------------|--------------------------|--------------------------|-------------------------|--------------------------|--------------------------|-------------------------|--------------------------|--4---4-3-1---3---3-1-0---|--L--4-4-4-3---1----0----|--4---4-3-1---3---3-1-0---|--4---4-3-1---3---3-1-0---|--L--4-4-4-3---1----0----|--4---4-3-1---3---3-1-0---|
-------------------------|--------------------------|-------------------------|-------------------------|--------------------------|-------------------------|-------------------------|--------------------------|-------------------------|-------------------------|--------------------------|-------------------------|--L--4-4-4-3---1----0----|--4---4-3-1---3---3-1-0---|--L--4-4-4-3---1----0----|--L--4-4-4-3---1----0----|--4---4-3-1---3---3-1-0---|--L--4-4-4-3---1----0----|
--------------------------|-------------------------|-------------------|--------------------------|-------------------------|-------------------|--------------------------|-------------------------|-------------------|--------------------------|-------------------------|-------------------|--4---4-3-1---3---3-1-0---|--L--4-4-4-3---1----0----|--0----------------|--4---4-3-1---3---3-1-0---|--L--4-4-4-3---1----0----|--0----------------|
----------------------------------|-------------------|----------------------------------|-------------------|----------------------------------|-------------------|----------------------------------|-------------------|----------4---------4-----5---1-4-|--0----------------|--0-0-0-0---0-0-0-0---0-0---0-----|--0----------------|
----------------------------------|--------------------------|----------------------------------|--------------------------|----------------------------------|--------------------------|----------------------------------|--------------------------|----------4---------4-----5---1-4-|---------0----------------|--0-0-0-0---0-0-0-0---0-0---0-----|--0-0-0--0--------0-0-0-0-|
--------------------------|---------------------------|------------------------|--------------------------|---------------------------|------------------------|--------------------------|---------------------------|------------------------|--------------------------|---------------------------|------------------------|---------6----------------|---------4----3------------|---------1----4----3----|--0-0-0--6--------0-0-0-0-|--0-0-0--4----3----0-0-0-0-|--0-0-0--1----4----3----|
--------------------------|--------------------------|--------------------------|--------------------------|--------------------------|--------------------------|--------------------------|--------------------------|---------0----------------|---------6----------------|--0-0-0--0--------0-0-0-0-|--0-0-0--6--------0-0-0-0-|
---------------------------|------------------------|-----------------------|---------------------------|------------------------|-----------------------|---------------------------|------------------------|-----------------------|---------------------------|------------------------|-----------------------|---------4----3------------|---------1----4----3----|-----------------------|--0-0-0--4----3----0-0-0-0-|--0-0-0--1----4----3----|--0-0-0----------------|
-----------------------|-----------------------|-----------------------|-----------------------|-----------------------|-----------------------|-----------------------|-----------------------|-----------------------|-----------------------|--0-0-0----------------|--0-0-0----------------|
----------------------------------|-----------------------|----------------------------------|-----------------------|----------------------------------|-----------------------|----------------------------------|-----------------------|----------4---------4-----5---1-4-|-----------------------|--0-0-0-0---0-0-0-0---0-0---0-----|--0-0-0----------------|
-----------------------|-----------------------|-----------------------|-----------------------|-----------------------|-----------------------|-----------------------|-----------------------|-----------------------|-----------------------|--0-0-0----------------|--0-0-0----------------|
----------------------------------|-----------------------------|----------------------------------|-----------------------------|----------------------------------|-----------------------------|----------------------------------|-----------------------------|----------4---------4-----5---1-4-|---------0------1----4----3--|--0-0-0-0---0-0-0-0---0-0---0-----|--0-0-0--0--0-0-1--0-4--0-3--|
-----------------------------|-----------------------------|-------------------|-----------------------------|-----------------------------|-------------------|-----------------------------|-----------------------------|-------------------|-----------------------------|-----------------------------|-------------------|---------0------1----4----3--|---------0------1----4----3--|-------------------|--0-0-0--0--0-0-1--0-4--0-3--|--0-0-0--0--0-0-1--0-4--0-3--|-------------------|
-----------------------------|-----------------------------|-----------------------------|-----------------------------|-----------------------------|-----------------------------|-----------------------------|-----------------------------|---------0------1----4----3--|---------0------1----4----3--|--0-0-0--0--0-0-1--0-4--0-3--|--0-0-0--0--0-0-1--0-4--0-3--|
-----------------------------|----------------------------------|-----------------------------|----------------------------------|-----------------------------|----------------------------------|-----------------------------|----------------------------------|---------0------1----4----3--|----------4---------4-----5---1-4-|--0-0-0--0--0-0-1--0-4--0-3--|--0-0-0-0---0-0-0-0---0-0---0-----|
-----------------------------|-----------------------------|-----------------------------|-----------------------------|-----------------------------|-----------------------------|-----------------------------|-----------------------------|---------0------1----4----3--|---------0------1----4----3--|--0-0-0--0--0-0-1--0-4--0-3--|--0-0-0--0--0-0-1--0-4--0-3--|
-----------------------------|----------------------------------|-----------------------------|----------------------------------|-----------------------------|----------------------------------|-----------------------------|----------------------------------|---------0------1----4----3--|----------4---------4-----5---1-4-|--0-0-0--0--0-0-1--0-4--0-3--|--0-0-0-0---0-0-0-0---0-0---0-----|
------------------------------|-----------------------------|------------------------------|-----------------------------|------------------------------|-----------------------------|------------------------------|-----------------------------|---------0-------------0------|---------0------1----4----3--|--0-0-0--0--0-0-0-0-0--0--0-0-|--0-0-0--0--0-0-1--0-4--0-3--|
------------------------------|-----------------------------|------------------------------|-----------------------------|------------------------------|-----------------------------|------------------------------|-----------------------------|---------0-------------0------|---------0------1----4----3--|--0-0-0--0--0-0-0-0-0--0--0-0-|--0-0-0--0--0-0-1--0-4--0-3--|
------------------------------|-----------------------------|------------------------------|-----------------------------|------------------------------|-----------------------------|------------------------------|-----------------------------|---------0-------------0------|---------0------1----4----3--|--0-0-0--0--0-0-0-0-0--0--0-0-|--0-0-0--0--0-0-1--0-4--0-3--|
------------------------------|----------------------------------|------------------------------|----------------------------------|------------------------------|----------------------------------|------------------------------|----------------------------------|---------0-------------0------|----------4---------4-----5---1-4-|--0-0-0--0--0-0-0-0-0--0--0-0-|--0-0-0-0---0-0-0-0---0-0---0-----|
----------------------------------|----------------------||----------------------------------|----------------------||----------------------------------|----------------------||----------------------------------|----------------------||----4-----5---1-4---4-----5---1-4-|--0-------------------||--0---0-0---0-----0---0-0---0-----|--0-------------------||
Text Tab by KlotziDotCom, based on a GP Tab by "Uncrrupt"
Tap to rate this tab
 
# A B C D E F G H I J K L M N O P Q R S T U V W X Y Z