Hatesphere - Sickness Within tab

                                                         
-------------------------|--------------------------|-------------------------|--------------------------|-------------------------|--------------------------|----------------------2--|-----------2--3--------3--|----------------------2--|-----------2--3--------3--|----------0--1--2--3-----|--0--0--0--------0--0-----|
-----------------------------|--------------------------|-----------------------------|--------------------------|-----------------------------|--------------------------|--2-----------------------2--|-----------2--3--------3--|--2-----------------------2--|-----------2--3--------3--|-----0--0--0--0--1--2--3-----|--0--0--0--------0--0-----|
-----------------------------|--------------------------|-----------------------------|--------------------------|-----------------------------|--------------------------|--2-----------------------2--|-----------2--3--------3--|--2-----------------------2--|-----------2--3--------3--|-----0--0--0--0--1--2--3-----|--0--0--0--------0--0-----|
-----------------------------|----------------------------|-----------------------------|----------------------------|-----------------------------|----------------------------|--2-----------------------2--|-------------------------2--|--2-----------------------2--|-------------------------2--|-----0--0--0--0--1--2--3-----|----x--x--x--0--1--2--3-----|
---------------------|--------------------------|--------------------------|---------------------|--------------------------|--------------------------|---------------------|--5--------------5--------|--4--------------4--------|---------------------|--------------------------|--------------------------|---------------------|--3--------------3--------|--2--------------2--------|----3--2--1----------|-------0-0-0--0-----0--0--|-------0-0-0--0-----0--0--|
--------------------------|--------------------------|--------------------------|--------------------------|--5-----------4-----------|--8--------------8--------|--------------------------|--------------------------|--3-----------2-----------|--6--------------6--------|-------0-0-0-------0-0-0--|-------0-0-0--0-----0--0--|
--------------------------|--------------------------|--------------------------|--------------------------|--5--------------5--------|--4--------------4--------|--------------------------|--------------------------|--3--------------3--------|--2--------------2--------|-------0-0-0--0-----0--0--|-------0-0-0--0-----0--0--|
--------------------------|--------------------------|--------------------------|--------------------------|--5-----------4-----------|--8--8--8--8--8--8--8--8--|--------------------------|--------------------------|--3-----------2-----------|--6--6--6--6--6--6--6--6--|-------0-0-0-------0-0-0--|--------------------------|
---------------------------|----------------------------|---------------------------|----------------------------|-------11--------11--------|--11--11--------9--9--------|-------9---------9---------|--9---9---------9--9--------|-------7---------7---------|--7---7---------7--7--------|--0--------0--0------0--0--|----------0--0--------0--0--|
---------------------------|----------------------------|---------------------------|----------------------------|-------11--------11--------|--11--11--------9--9--------|-------9---------9---------|--9---9---------9--9--------|-------7---------7---------|--7---7---------7--7--------|--0--------0--0------0--0--|----------0--0--------0--0--|
---------------------------|------------------------------|---------------------------|------------------------------|-------12--------12--------|--12--12--------11--11--------|--2----9---------9---------|--9---9---------9---9---------|--0--------0--0------0--0--|----------0--0----------0--0--|---------------------------|------------------------------|
----------------------------------|--------------------------|----------------------------------|--------------------------|--12--12--12--12--12--12--12--12--|--7--7--7--7--7--7--7--7--|--9---9---9---9---9---9---9---9---|--------------------------|--10--10--10--10--10--10--10--10--|--5--5--5--5--5--5--5--5--|----------------------------------|--------------------------|
|-------------------------------|------------------------------||-------------------------------|------------------------------||*--5--5--5--5----5--5--5--5----|--5--5--5--5----5--5--5--5----||*------------------------------|------------------------------||---3--3--3--3----3--3--3--3----|--3--3--3--3----3--3--3--3----||---0--0--0--0----0--0--0--0----|--0--0--0--0----0--0--0--0----|
------------------------------|------------------------------|------------------------------|------------------------------|--4--4--4--4----4--4--4--4----|--4--4--4--4----4--4--4--4----|------------------------------|------------------------------|--2--2--2--2----2--2--2--2----|--2--2--2--2----2--2--2--2----|--0--0--0--0----0--0--0--0----|--0--0--0--0----0--0--0--0----|
------------------------------|------------------------------|------------------------------|------------------------------|--5--5--5--5----5--5--5--5----|--4--4--4--4----4--4--4--4----|------------------------------|------------------------------|--3--3--3--3----3--3--3--3----|--2--2--2--2----2--2--2--2----|--0--0--0--0----0--0--0--0----|--0--0--0--0----0--0--0--0----|
------------------------------|-------------------------------||------------------------------|-------------------------------||--8--8--8--8----8--8--8--8----|--8--8--8--8----8--8--8--8----*||------------------------------|------------------------------*||--6--6--6--6----6--6--6--6----|--6--6--6--6----6--6--6--6-----||--0--0--0--0----0--0--0--0----|--0--0--0--0----0--0--0--0-----||
--------------------|------------------|-------------------|------------------|--------------------|------------------|-------------------|------------------|*--5----------------|------------------|--4----------------|------------------|*-------------------|------------------|-------------------|------------------|---3----------------|------------------|--2----------------|------------------|---0----------------|------------------|--0----------------|------------------|
-------------------|-------------------|-------------------|-------------------|-------------------|-------------------|--5----------------|--4----------------|--8----------------|-------------------|-------------------|-------------------|--3----------------|--2----------------|--6----------------|--0----------------|--0----------------|--0----------------|
-------------------||----------------------|----------------------|-------------------||----------------------|----------------------|------------------*||----------------------|----------------------|------------------*||--8----8----8----8----|--8----8----8----8----|-------------------||--6----6----6----6----|--6----6----6----6----|-------------------||--6----6----6----6----|--6----6----6----6----|
|-----------------------|---------------------|----------------------||-----------------------|---------------------|----------------------||*--5-------------------|-------5--------5----|--4-------------------||*----------------------|---------------------|----------------------||---3-------------------|-------3--------3----|--2-------------------||--------0----0----0----|--0------------------|-------0----0----0----|
----------------------|----------------------|----------------------|----------------------|----------------------|----------------------|-------4----4----4----|--5-------------------|--4-------------------|----------------------|----------------------|----------------------|-------2----2----2----|--3-------------------|--2-------------------|--0-------------------|-------0----0----0----|-------0----0----0----|
----------------------|-----------------------||----------------------|----------------------|-----------------------||----------------------|--8-------------------|-------8----8----8----*||--4-------------------|----------------------|----------------------*||----------------------|--6-------------------|-------6----6----6-----||--2-------------------|-------0----0----0----|--0--------------------||-------0----0----0----|
----------------------|-----------------------||----------------------|-----------------------||--8----8----8----8----|--8/-9--9----9----9----||--8----8----8----8----|--8/-9--9----9----9----||--6----6----6----6----|--6/-7--7----7----7----||--6----6----6----6----|--6/-7--7----7----7----||
Tap to rate this tab
 
# A B C D E F G H I J K L M N O P Q R S T U V W X Y Z