Hatesphere - Heaven Is Ready To Fall tab

                                                          
-------------------|---------------------|------------------|-------------------|---------------------|------------------|-------------------|---------------------|------------------|--7----------------|--6--------3----5----|------------------|--5----------------|--4--------1----5----|------------------|--5----------------|--4--------1----3----|------------------|
------------------|------------------|------------------|------------------|------------------|------------------|------------------|------------------|------------------|------------------|------------------|------------------|------------------|------------------|------------------|------------------|------------------|------------------|------------------|------------------|------------------|------------------|------------------|------------------|
------------------|----------------------|---------------------------|------------------|----------------------|---------------------------|------------------|----------------------|---------------------------|------------------|----------------------|---------------------------|------------------|----------------------|---------------------------|------------------|--------------0-0-0-0-|--12--0--0--8--7--0--5--7--|
-------------------|------------------------|-------------------|-------------------|------------------------|-------------------|-------------------|------------------------|-------------------|--7----------------|--6--------3----5-5-5-5-|--7----------------|--5----------------|--4--------1----5-5-3-5-|--5----------------|--5----------------|--4--------1----3-3-3-3-|--5----------------|
---------------------|-----------------------------|---------------------|-----------------------------|---------------------|-----------------------------|--6--------3--3------|-----------------------------|--4--------1--1------|-----------------------------|--4--------1--1------|--13h-0--13--15--12~---0--0--|
-------------------------------|----------------------------|-------------------------------|----------------------------|-------------------------------|----------------------------|-------------------------------|----------------------------|-------------------------------|----------------------------|--13h-0--13--15--12h-0--13h-0--|--13--15--12~-------0-0-0-0-|
---------------------------|-----------------------------|---------------------------|-----------------------------|---------------------------|-----------------------------|---------------------------|-----------------------------|---------------------------|-----------------------------|--12--0--0--8--7--0--5--7--|--13h-0--13--15--12~---0--0--|
-------------------------------|----------------------------|-------------------------------|----------------------------|-------------------------------|----------------------------|-------------------------------|----------------------------|-------------------------------|----------------------------|--13h-0--13--15--12h-0--13h-0--|--13--15--12~-------0-0-0-0-|
---------------------------|--------------------------|---------------------------|--------------------------|---------------------------|--------------------------|---------------------------|--------------------------|---------------------------|--8----x--10--7--x--x--8--|--12--0--0--8--7--0--5--7--|--0----0---------0--0--0--|
---------------------------|---------------------------|---------------------------|---------------------------|---------------------------|---------------------------|---------------------------|---------------------------|--8--x--x--10--7--x--x--8--|--10--x--x--8--7--x--x--7--|--0--0--0--0---0--0--0--0--|--0---0--0--0--0--0--0--0--|
------------------------------|--------------------------|------------------------------|--------------------------|------------------------------|--------------------------|------------------------------|--------------------------|-------------5-------------9--|--8----x--10--7--x--x--8--|--3-3-3-3-3-----7-7-7-7-7-----|--0----0---------0--0--0--|
---------------------------|---------------------------|---------------------------|---------------------------|---------------------------|---------------------------|---------------------------|---------------------------|--8--x--x--10--7--x--x--8--|--10--x--x--8--7--x--x--7--|--0--0--0--0---0--0--0--0--|--0---0--0--0--0--0--0--0--|
---------------------------|--------------------------|---------------------------|--------------------------|---------------------------|--------------------------|---------------------------|--------------------------|--10--9--9--9--------------|--8----x--10--7--x--x--8--|--7---7--7--7--3--6--6--6--|--0----0---------0--0--0--|
---------------------------|---------------------------|---------------------------|---------------------------|---------------------------|---------------------------|---------------------------|---------------------------|--8--x--x--10--7--x--x--8--|--10--x--x--8--7--x--x--7--|--0--0--0--0---0--0--0--0--|--0---0--0--0--0--0--0--0--|
------------------------------|--------------------------|------------------------------|--------------------------|------------------------------|--------------------------|------------------------------|--------------------------|-------------5-------------9--|--8----x--10--7--x--x--8--|--3-3-3-3-3-----7-7-7-7-7-----|--0----0---------0--0--0--|
---------------------------|---------------------------|---------------------------|---------------------------|---------------------------|---------------------------|---------------------------|---------------------------|--8--x--x--10--7--x--x--8--|--10--x--x--8--7--x--x--7--|--0--0--0--0---0--0--0--0--|--0---0--0--0--0--0--0--0--|
---------------------------|-----------------------------|---------------------------|-----------------------------|---------------------------|-----------------------------|---------------------------|-----------------------------|--10--9--9--9--------------|-----------------------------|--7---7--7--7--3--6--6--6--|--13h-0--13--15--12~---0--0--|
-------------------------------|----------------------------|-------------------------------|----------------------------|-------------------------------|----------------------------|-------------------------------|----------------------------|-------------------------------|----------------------------|--13h-0--13--15--12h-0--13h-0--|--13--15--12~-------0-0-0-0-|
---------------------------|-----------------------------|---------------------------|-----------------------------|---------------------------|-----------------------------|---------------------------|-----------------------------|---------------------------|-----------------------------|--12--0--0--8--7--0--5--7--|--13h-0--13--15--12~---0--0--|
-------------------------------|----------------------------|-------------------------------|----------------------------|-------------------------------|----------------------------|-------------------------------|----------------------------|-------------------------------|----------------------------|--13h-0--13--15--12h-0--13h-0--|--13--15--12~-------0-0-0-0-|
---------------------------|--------------------------|---------------------------|--------------------------|---------------------------|--------------------------|---------------------------|--------------------------|---------------------------|--8----x--10--7--x--x--8--|--12--0--0--8--7--0--5--7--|--0----0---------0--0--0--|
---------------------------|---------------------------|---------------------------|---------------------------|---------------------------|---------------------------|---------------------------|---------------------------|--8--x--x--10--7--x--x--8--|--10--x--x--8--7--x--x--7--|--0--0--0--0---0--0--0--0--|--0---0--0--0--0--0--0--0--|
------------------------------|--------------------------|------------------------------|--------------------------|------------------------------|--------------------------|------------------------------|--------------------------|-------------5-------------9--|--8----x--10--7--x--x--8--|--3-3-3-3-3-----7-7-7-7-7-----|--0----0---------0--0--0--|
---------------------------|---------------------------|---------------------------|---------------------------|---------------------------|---------------------------|---------------------------|---------------------------|--8--x--x--10--7--x--x--8--|--10--x--x--8--7--x--x--7--|--0--0--0--0---0--0--0--0--|--0---0--0--0--0--0--0--0--|
---------------------------|--------------------------|---------------------------|--------------------------|---------------------------|--------------------------|---------------------------|--------------------------|--10--9--9--9--------------|--8----x--10--7--x--x--8--|--7---7--7--7--3--6--6--6--|--0----0--0------0--0--0--|
---------------------------|---------------------------|---------------------------|---------------------------|---------------------------|---------------------------|---------------------------|---------------------------|--8--x--x--10--7--x--x--8--|--10--x--x--8--7--x--x--7--|--0--0--0--0---0--0--0--0--|--0---0--0--0--0--0--0--0--|
------------------------------|--------------------------|------------------------------|--------------------------|------------------------------|--------------------------|------------------------------|--------------------------|-------------5-------------9--|--8----x--10--7--x--x--8--|--3-3-3-3-3-----7-7-7-7-7-----|--0----0---------0--0--0--|
---------------------------|---------------------------|---------------------------|---------------------------|---------------------------|---------------------------|---------------------------|---------------------------|--8--x--x--10--7--x--x--8--|--10--x--x--8--7--x--x--7--|--0--0--0--0---0--0--0--0--|--0---0--0--0--0--0--0--0--|
---------------------------|--------------------------|---------------------------|--------------------------|---------------9--9--8--8--|--7--7--7--7--7--7--7--7--|---------------------------|--------------------------|--10--8--7--0--7--7--6--6--|--5--5--5--5--5--5--5--5--|---------------------------|--------------------------|
--------------------------|----------------------------|--------------------------|----------------------------|--7--7--6--6--6--6--------|--------------------10--10--|--------------------8--8--|--8--8--5--5--5--5----------|--5--5--4--4--4--4--------|--------------------8---8---|--------------------6--6--|--6--6--3--3--3--3----------|
--------------------------------|--------------------------|--------------------------------|--------------------------|--10--10--12--12--12--12--9--9--|--7--7--7--7--7--7--7--7--|--------------------------------|--------------------------|--8---8---10--10--10--10--7--7--|--5--5--5--5--5--5--5--5--|--------------------------------|--------------------------|
--------------------------|----------------------------|--------------------------|----------------------------|--7--7--6--6--6--6--------|--------------------10--10--|--------------------8--8--|--8--8--5--5--5--5----------|--5--5--4--4--4--4--------|--------------------8---8---|--------------------6--6--|--6--6--3--3--3--3----------|
------------------------------|--------------------------|------------------------------|--------------------------|--10--10--12--12--9--9--9--9--|--7--7--7--7--7--7--7--7--|------------------------------|--------------------------|--8---8---10--10--7--7--7--7--|--5--5--5--5--5--5--5--5--|------------------------------|--------------------------|
--------------------------|----------------------------|--------------------------|----------------------------|--7--7--6--6--6--6--------|--------------------10--10--|--------------------8--8--|--8--8--5--5--5--5----------|--5--5--4--4--4--4--------|--------------------8---8---|--------------------6--6--|--6--6--3--3--3--3----------|
--------------------------------|--------------------------|--------------------------------|--------------------------|--10--10--12--12--12--12--9--9--|--7--7--7--7--7--7--7--7--|--------------------------------|--------------------------|--8---8---10--10--10--10--7--7--|--5--5--5--5--5--5--5--5--|--------------------------------|--------------------------|
--------------------------|----------------------------|--------------------------|----------------------------|--7--7--6--6--6--6--------|--------------------10--10--|--------------------8--8--|--8--8--5--5--5--5----------|--5--5--4--4--4--4--------|--------------------8---8---|--------------------6--6--|--6--6--3--3--3--3----------|
------------------------------|--------------------|------------------|------------------------------|--------------------|------------------|--10--10--12--12--9--9--9--9--|--------------------|------------------|------------------------------|--------------------|------------------|--8---8---10--10--7--7--7--7--|--------------------|------------------|------------------------------|--1h-0--------------|------------------|
------------------|------------------|-----------------------------|------------------|------------------|-----------------------------|------------------|------------------|-----------------------------|------------------|------------------|-----------------------------|------------------|------------------|-----------------------------|------------------|------------------|--13h-0--13--15--12~---0--0--|
-------------------------------|----------------------------|-------------------------------|----------------------------|-------------------------------|----------------------------|-------------------------------|----------------------------|-------------------------------|----------------------------|--13h-0--13--15--12h-0--13h-0--|--13--15--12~-------0-0-0-0-|
---------------------------|--------------------------|---------------------------|--------------------------|---------------------------|--------------------------|---------------------------|--------------------------|---------------------------|--8----x--10--7--x--x--8--|--12--0--0--8--7--0--5--7--|--0----0---------0--0--0--|
---------------------------|---------------------------|---------------------------|---------------------------|---------------------------|---------------------------|---------------------------|---------------------------|--8--x--x--10--7--x--x--8--|--10--x--x--8--7--x--x--7--|--0--0--0--0---0--0--0--0--|--0---0--0--0--0--0--0--0--|
------------------------------|--------------------------|------------------------------|--------------------------|------------------------------|--------------------------|------------------------------|--------------------------|-------------5-------------9--|--8----x--10--7--x--x--8--|--3-3-3-3-3-----7-7-7-7-7-----|--0----0---------0--0--0--|
---------------------------|---------------------------|---------------------------|---------------------------|---------------------------|---------------------------|---------------------------|---------------------------|--8--x--x--10--7--x--x--8--|--10--x--x--8--7--x--x--7--|--0--0--0--0---0--0--0--0--|--0---0--0--0--0--0--0--0--|
---------------------------|--------------------------|---------------------------|--------------------------|---------------------------|--------------------------|---------------------------|--------------------------|--10--9--9--9--------------|--8----x--10--7--x--x--8--|--7---7--7--7--3--6--6--6--|--0----0---------0--0--0--|
---------------------------|---------------------------|---------------------------|---------------------------|---------------------------|---------------------------|---------------------------|---------------------------|--8--x--x--10--7--x--x--8--|--10--x--x--8--7--x--x--7--|--0--0--0--0---0--0--0--0--|--0---0--0--0--0--0--0--0--|
------------------------------|--------------------------|------------------------------|--------------------------|------------------------------|--------------------------|------------------------------|--------------------------|-------------5-------------9--|--8----x--10--7--x--x--8--|--3-3-3-3-3-----7-7-7-7-7-----|--0----0---------0--0--0--|
---------------------------|---------------------------|---------------------------|---------------------------|---------------------------|---------------------------|---------------------------|---------------------------|--8--x--x--10--7--x--x--8--|--10--x--x--8--7--x--x--7--|--0--0--0--0---0--0--0--0--|--0---0--0--0--0--0--0--0--|
---------------------------|--------------------------|---------------------------|--------------------------|---------------9--9--8--8--|--7--7--7--7--7--7--7--7--|---------------------------|--------------------------|--10--8--7--0--7--7--6--6--|--5--5--5--5--5--5--5--5--|---------------------------|--------------------------|
--------------------------|----------------------------|--------------------------|----------------------------|--7--7--6--6--6--6--------|--------------------10--10--|--------------------8--8--|--8--8--5--5--5--5----------|--5--5--4--4--4--4--------|--------------------8---8---|--------------------6--6--|--6--6--3--3--3--3----------|
--------------------------------|--------------------------|--------------------------------|--------------------------|--10--10--12--12--12--12--9--9--|--7--7--7--7--7--7--7--7--|--------------------------------|--------------------------|--8---8---10--10--10--10--7--7--|--5--5--5--5--5--5--5--5--|--------------------------------|--------------------------|
--------------------------|----------------------------|--------------------------|----------------------------|--7--7--6--6--6--6--------|--------------------10--10--|--------------------8--8--|--8--8--5--5--5--5----------|--5--5--4--4--4--4--------|--------------------8---8---|--------------------6--6--|--6--6--3--3--3--3----------|
------------------------------|--------------------------|------------------------------|--------------------------|--10--10--12--12--9--9--9--9--|--7--7--7--7--7--7--7--7--|------------------------------|--------------------------|--8---8---10--10--7--7--7--7--|--5--5--5--5--5--5--5--5--|------------------------------|--------------------------|
--------------------------|----------------------------|--------------------------|----------------------------|--7--7--6--6--6--6--------|--------------------10--10--|--------------------8--8--|--8--8--5--5--5--5----------|--5--5--4--4--4--4--------|--------------------8---8---|--------------------6--6--|--6--6--3--3--3--3----------|
--------------------------------|--------------------------|--------------------------------|--------------------------|--10--10--12--12--12--12--9--9--|--7--7--7--7--7--7--7--7--|--------------------------------|--------------------------|--8---8---10--10--10--10--7--7--|--5--5--5--5--5--5--5--5--|--------------------------------|--------------------------|
--------------------------|----------------------------|--------------------------|----------------------------|--7--7--6--6--6--6--------|--------------------10--10--|--------------------8--8--|--8--8--5--5--5--5----------|--5--5--4--4--4--4--------|--------------------8---8---|--------------------6--6--|--6--6--3--3--3--3----------|
------------------------------|-------------------|--------------------|------------------------------|-------------------|--------------------|--10--10--12--12--9--9--9--9--|-------------------|--------------------|------------------------------|--7----------------|--6--------8/-------|--8---8---10--10--7--7--7--7--|--5----------------|--4--------8/-------|------------------------------|--5----------------|--4--------6/-------|
---------------------|-----------------------|-------------------|---------------------|-----------------------|-------------------|---------------------|-----------------------|-------------------|--5------------10----|--10----12----9/-------|--7----------------|--5------------8-----|--8-----10----7/-------|--5----------------|--3------------8-----|--8-----10----7/-------|--5----------------|
--------------------|---------------------|-----------------------|--------------------|---------------------|-----------------------|--------------------|---------------------|-----------------------|--6--------8/-------|------5--------10----|--10----12----9--------|--4--------6/-------|------5--------8-----|--8-----10----7--------|--4--------6/-------|------3--------8-----|--8-----10----7--------|
-------------------|--------------------|---------------------|-------------------|--------------------|---------------------|-------------------|--------------------|---------------------|--7----------------|--6--------8/-------|--5------------10----|--5----------------|--4--------8/-------|--5------------8-----|--5----------------|--4--------6/-------|--3------------8-----|
-----------------------|-------------------|--------------------|-----------------------|-------------------|--------------------|-----------------------|-------------------|--------------------|--10----12----9/-------|--7----------------|--6--------8/-------|--8-----10----7/-------|--5----------------|--4--------6/-------|--8-----10----7/-------|--5----------------|--4--------6/-------|
---------------------|-----------------------|-------------------|---------------------|-----------------------|-------------------|---------------------|-----------------------|--7----------------|------5--------10----|--10----12----9--------|--8----------------|------5--------8-----|--8-----10----7--------|--5----------------|------3--------8-----|--8-----10----7--------|--5----------------|
------------------|------------------|------------------|------------------|------------------|------------------|------------------|------------------|------------------|------------------|------------------|------------------|------------------|------------------|------------------|------------------|------------------|------------------|------------------|------------------|------------------|------------------|------------------|------------------|
------------------|------------------|------------------|------------------|------------------|------------------|------------------|------------------|------------------|------------------|------------------|------------------|------------------|------------------|------------------|------------------|------------------|------------------|------------------|------------------|------------------|------------------|------------------|------------------|
------------------|------------------|------------------|------------------|------------------|------------------|------------------|------------------|------------------|------------------|------------------|------------------|------------------|------------------|------------------|------------------|------------------|------------------|------------------|------------------|------------------|------------------|------------------|------------------|
------------------|-------------------|------------5--------|------------------|------------------|-------------------|------------5--------|------------------|------------------|--7----------------|--7----7----7--------|------------------|------------------|--8----------------|--8----8----7--------|------------------|------------------|--5----------------|--5----5----5--------|------------------|------------------|--5----------------|--5----5----5--------|------------------|
--5----5--------5/---|----------------------|---------------------|--5----5--------5/---|----------------------|---------------------|--7----7--------7/---|----------------------|---------------------|--7----7--------7/---|------------7----7----|------------5--------|--5----5--------5/---|-------5--------------|--5---------5--------|--5----5--------5/---|--3-------------------|-------0----3--------|
-------------------|--------------------|--------------------|-------------------|--------------------|--------------------|-------------------|--------------------|--------------------|--------------5----|--5-----------------|--8------------8----|--------------5----|--5-----------------|--5------------5----|--------------3----|--3--------5b-------|--6------------6----|
---------------------|------------------|---------------------|---------------------|------------------|---------------------|---------------------|------------------|---------------------|--8----8----8--------|------------------|--8----8--------8/---|--5----5----5--------|------------------|--5----5--------5/---|--6----6----6--------|------------------|--6----6--------6/---|
--------------------|---------------------|-------------------|--------------------|---------------------|-------------------|--6------------6----|------------6/-------|--7/---------------|--7------------7----|--7----7----7/-------|--8/---------------|--------------------|--7----7-------------|--5/---------------|--5------------5----|--5----5----5/-------|--5/---------------|
----------5--------|------------------|--5----5--------5/---|----------5--------|------------------|--5----5--------5/---|----------7--------|------------------|--7----7--------7/---|----------7--------|------------------|--7----7--------7/---|----------5--------|------------------|--5----5--------5/---|----------5--------|------------------|--5----5--------5/---|
----------------------|---------------------|-------------------|----------------------|---------------------|-------------------|----------------------|---------------------|-------------------|------------7----7----|------------5--------|--------------5----|-------5--------------|--5---------5--------|--------------5----|--3-------------------|-------0----3--------|--------------3----|
--------------------|--------------------|---------------------|--------------------|--------------------|---------------------|--------------------|--------------------|---------------------|--5-----------------|--8------------8----|--8----8----8--------|--5-----------------|--5------------5----|--5----5----5--------|--3--------5b-------|--6------------6----|--6----6----6--------|
------------------|---------------------|--------------------|------------------|---------------------|--------------------|------------------|---------------------|--6------------6----|------------------|--8----8--------8/---|--7------------7----|------------------|--5----5--------5/---|--------------------|------------------|--6----6--------6/---|--5------------5----|
---------------------|--0----------------|------------------|------------------|---------------------|--0----------------|------------------|------------------|------------6/-------|--x----------------|------------------|------------------|--7----7----7/-------|--2----------------|------------------|------------------|--7----7-------------|--2----------------|------------------|------------------|--5----5----5/-------|--0----------------|------------------|------------------|
------------------|------------------|------------------|------------------|------------------|------------------|------------------|------------------|------------------|------------------|------------------|------------------|------------------|------------------|------------------|------------------|------------------|------------------|------------------|------------------|------------------|------------------|------------------|------------------|
------------------|--------------------------|---------------------------|------------------|--------------------------|---------------------------|------------------|--------------------------|---------------------------|------------------|--------------------------|---------------------------|------------------|--8----x--x--8--10--x--x--|--7--8--x--x--8--10--x--x--|------------------|--0----0--0--0--0---0--0--|--0--0--0--0--0--0---0--0--|
---------------------------|--------------------------|---------------------------|--------------------------|---------------------------|--------------------------|---------------------------|--------------------------|--10--8--x--x--8--7--x--7--|--------5--5--------9--9--|--0---0--0--0--0--0--0--0--|--3--3--------7--7--------|
--------------------------|---------------------------|--------------------------|---------------------------|--------------------------|---------------------------|--------------------------|---------------------------|--8----x--x--8--10--x--x--|--7--8--x--x--8--10--x--x--|--0----0--0--0--0---0--0--|--0--0--0--0--0--0---0--0--|
---------------------------|---------------------------|---------------------------|---------------------------|---------------------------|---------------------------|---------------------------|---------------------------|--10--8--x--x--8--7--x--7--|--10--9--9--9--------------|--0---0--0--0--0--0--0--0--|--7---7--7--7--3--6--6--6--|
--------------------------|---------------------------|--------------------------|---------------------------|--------------------------|---------------------------|--------------------------|---------------------------|--8----x--x--8--10--x--x--|--7--8--x--x--8--10--x--x--|--0----0--0--0--0---0--0--|--0--0--0--0--0--0---0--0--|
---------------------------|--------------------------|---------------------------|--------------------------|---------------------------|--------------------------|---------------------------|--------------------------|--10--8--x--x--8--7--x--7--|--------5--5--------------|--0---0--0--0--0--0--0--0--|--3--3--------1--1--0--0--|
--------------------------|---------------------------|--------------------------|---------------------------|--------------------------|---------------------------|--------------------------|---------------------------|--8----x--x--8--10--x--x--|--7--8--x--x--8--10--x--x--|--0----0--0--0--0---0--0--|--0--0--0--0--0--0---0--0--|
---------------------------|-----------------------------|---------------------------|-----------------------------|---------------------------|-----------------------------|---------------------------|-----------------------------|--10--8--x--x--8--7--x--7--|--10--8--7------8--7---------|--0---0--0--0--0--0--0--0--|------------10--------10--8--|
--------------------------|---------------------------|--------------------------|---------------------------|--------------------------|---------------------------|--------------------------|---------------------------|--8----x--10--7--x--x--8--|--8--x--x--10--7--x--x--8--|--0----0---------0--0--0--|--0--0--0--0---0--0--0--0--|
---------------------------|------------------------------|---------------------------|------------------------------|---------------------------|------------------------------|---------------------------|------------------------------|--10--x--x--8--7--x--x--7--|-------------5-------------9--|--0---0--0--0--0--0--0--0--|--3-3-3-3-3-----7-7-7-7-7-----|
--------------------------|---------------------------|--------------------------|---------------------------|--------------------------|---------------------------|--------------------------|---------------------------|--8----x--10--7--x--x--8--|--8--x--x--10--7--x--x--8--|--0----0---------0--0--0--|--0--0--0--0---0--0--0--0--|
---------------------------|---------------------------|---------------------------|---------------------------|---------------------------|---------------------------|---------------------------|---------------------------|--10--x--x--8--7--x--x--7--|--10--9--9--9--------------|--0---0--0--0--0--0--0--0--|--7---7--7--7--3--6--6--6--|
--------------------------|---------------------------|--------------------------|---------------------------|--------------------------|---------------------------|--------------------------|---------------------------|--8----x--10--7--x--x--8--|--8--x--x--10--7--x--x--8--|--0----0---------0--0--0--|--0--0--0--0---0--0--0--0--|
---------------------------|------------------------------|---------------------------|------------------------------|---------------------------|------------------------------|---------------------------|------------------------------|--10--x--x--8--7--x--x--7--|-------------5-------------9--|--0---0--0--0--0--0--0--0--|--3-3-3-3-3-----7-7-7-7-7-----|
--------------------------|---------------------------|--------------------------|---------------------------|--------------------------|---------------------------|--------------------------|---------------------------|--8----x--10--7--x--x--8--|--8--x--x--10--7--x--x--8--|--0----0---------0--0--0--|--0--0--0--0---0--0--0--0--|
---------------------------|---------------------------|---------------------------|---------------------------|---------------------------|---------------9--9--8--8--|---------------------------|---------------------------|--10--x--x--8--7--x--x--7--|--10--8--7--0--7--7--6--6--|--0---0--0--0--0--0--0--0--|---------------------------|
--------------------------|--------------------------|--------------------------|--------------------------|--7--7--7--7--7--7--7--7--|--7--7--6--6--6--6--------|--------------------------|--------------------8--8--|--5--5--5--5--5--5--5--5--|--5--5--4--4--4--4--------|--------------------------|--------------------6--6--|
----------------------------|--------------------------------|----------------------------|--------------------------------|--------------------10--10--|--10--10--12--12--12--12--9--9--|--8--8--5--5--5--5----------|--------------------------------|--------------------8---8---|--8---8---10--10--10--10--7--7--|--6--6--3--3--3--3----------|--------------------------------|
--------------------------|--------------------------|--------------------------|--------------------------|--7--7--7--7--7--7--7--7--|--7--7--6--6--6--6--------|--------------------------|--------------------8--8--|--5--5--5--5--5--5--5--5--|--5--5--4--4--4--4--------|--------------------------|--------------------6--6--|
----------------------------|------------------------------|----------------------------|------------------------------|--------------------10--10--|--10--10--12--12--9--9--9--9--|--8--8--5--5--5--5----------|------------------------------|--------------------8---8---|--8---8---10--10--7--7--7--7--|--6--6--3--3--3--3----------|------------------------------|
--------------------------|--------------------------|--------------------------|--------------------------|--7--7--7--7--7--7--7--7--|--7--7--6--6--6--6--------|--------------------------|--------------------8--8--|--5--5--5--5--5--5--5--5--|--5--5--4--4--4--4--------|--------------------------|--------------------6--6--|
----------------------------|--------------------------------|----------------------------|--------------------------------|--------------------10--10--|--10--10--12--12--12--12--9--9--|--8--8--5--5--5--5----------|--------------------------------|--------------------8---8---|--8---8---10--10--10--10--7--7--|--6--6--3--3--3--3----------|--------------------------------|
--------------------------|--------------------------|--------------------------|--------------------------|--7--7--7--7--7--7--7--7--|--7--7--6--6--6--6--------|--------------------------|--------------------8--8--|--5--5--5--5--5--5--5--5--|--5--5--4--4--4--4--------|--------------------------|--------------------6--6--|
----------------------------|------------------------------|----------------------------|------------------------------|--------------------10--10--|--10--10--12--12--9--9--9--9--|--8--8--5--5--5--5----------|------------------------------|--------------------8---8---|--8---8---10--10--7--7--7--7--|--6--6--3--3--3--3----------|------------------------------|
--------------------------|--------------------------|--------------------------|--------------------------|--7--7--7--7--7--7--7--7--|--7--7--6--6--6--6--------|--------------------------|--------------------8--8--|--5--5--5--5--5--5--5--5--|--5--5--4--4--4--4--------|--------------------------|--------------------6--6--|
----------------------------|--------------------------------|----------------------------|--------------------------------|--------------------10--10--|--10--10--12--12--12--12--9--9--|--8--8--5--5--5--5----------|--------------------------------|--------------------8---8---|--8---8---10--10--10--10--7--7--|--6--6--3--3--3--3----------|--------------------------------|
--------------------------|--------------------------|--------------------------|--------------------------|--7--7--7--7--7--7--7--7--|--7--7--6--6--6--6--------|--------------------------|--------------------8--8--|--5--5--5--5--5--5--5--5--|--5--5--4--4--4--4--------|--------------------------|--------------------6--6--|
----------------------------|------------------------------|----------------------------|------------------------------|--------------------10--10--|--10--10--12--12--9--9--9--9--|--8--8--5--5--5--5----------|------------------------------|--------------------8---8---|--8---8---10--10--7--7--7--7--|--6--6--3--3--3--3----------|------------------------------|
--------------------------|--------------------------|--------------------------|--------------------------|--7--7--7--7--7--7--7--7--|--6--6--6--6--------------|--------------------------|--------------8--8--8--8--|--5--5--5--5--5--5--5--5--|--4--4--4--4--------------|--------------------------|--------------6--6--6--6--|
----------------------------|------------------------------|----------------------------|------------------------------|--------------------10--10--|--10--10--12--12--9--9--9--9--|--5--5--5--5--5--5----------|------------------------------|--------------------8---8---|--8---8---10--10--7--7--7--7--|--3--3--3--3--3--3----------|------------------------------|
--------------------------|--------------------------|---------------------|--------------------------|--------------------------|---------------------|--7--7--7--7--7--7--7--7--|--6--6--6--6--------------|---------------------|--------------------------|--------------8--8--8--8--|------5--------10----|--5--5--5--5--5--5--5--5--|--4--4--4--4--------------|------5--------8-----|--------------------------|--------------6--6--6--6--|------3--------8-----|
------------------------|-------------------|------------------|------------------------|-------------------|------------------|------------------------|--7----------------|------------------|--10----12----9----6----|--7----------------|------------------|--8-----10----7----4----|--5----------------|------------------|--8-----10----7----4----|--5----------------|------------------|
Tap to rate this tab
 
# A B C D E F G H I J K L M N O P Q R S T U V W X Y Z