Hatesphere - Bloodsoil tab

--------------------|-----------------------------|------------------------|--------------------|-----------------------------|------------------------|----------------12--|----12--12--11----11--11--9--|----9-------------------|--------------------|-----------------------------|---------------------2--|----------------10--|----10--10--9-----9---9---7--|----7--2--5----7--9--2--|--------------------|-----------------------------|-------0--3----5--7--0--|
------------------|------------------|------------------|----------------------|------------------|------------------|------------------|----------------------|------------------|------------------|------------------|----------------------|------------------|------------------|------------------|----------------------|------------------|------------------|------------------|----------2--2--3--2--|------------------|------------------|------------------|----------0--0--1--0--|
-------------------|----------------0--|----------------5-------|-------------------|----------------0--|------------------5-----|-------------------|----------------x--|--------------------5---|-------------------|----------------2--|----------------------5-|------2------------|----------------2--|------------------------|------0------------|----------------0--|------------------------|
-------------------|----------------------------|-------------------|----------------------------|-------------------|----------------------------|-------------------|----------------------------|----------------2--|----2-----------------------|----------------0--|----0--0-0-0--0-0-0--0-0-0--|
---------------------------------|----------------------------|---------------------------------|----------------------------|---------------------------------|----------------------------|---------------------------------|----------------------------|------------------------------2--|----2-----------------------|--0-0-0-0-0-0-0-0-0-0-0-0-0-0-0--|----0--0-0-0--0-0-0--0-0-0--|
------------------------------|----------------------------|------------------------------|----------------------------|------------------------------|----------------------------|------------------------------|----------------------------|------------------------3-----|----2-----------------------|--0-0-0-0-0-0-0-0-0--0--1--0--|----0--0-0-0--0-0-0--0-0-0--|
---------------------------------|----------------------------|---------------------------------|----------------------------|---------------------------------|----------------------------|---------------------------------|----------------------------|------------------------------2--|----2-----------------------|--0-0-0-0-0-0-0-0-0-0-0-0-0-0-0--|----0--0-0-0--0-0-0--0-0-0--|
----------------------------|----------------------------|----------------------------|----------------------------|----------------------------|----------------------------|----------------------------|----------------------------|-------------------------2--|----2-----------------------|--2-2-2--3-3-3--1--0--1--0--|----0--0-0-0--0-0-0--0-0-0--|
---------------------------------|----------------------------|---------------------------------|----------------------------|---------------------------------|----------------------------|---------------------------------|----------------------------|------------------------------2--|----2-----------------------|--0-0-0-0-0-0-0-0-0-0-0-0-0-0-0--|----0--0-0-0--0-0-0--0-0-0--|
------------------------------|----------------------------|------------------------------|----------------------------|------------------------------|----------------------------|------------------------------|----------------------------|------------------------3--2--|----2-----------------------|--0-0-0-0-0-0-0-0-0--0--1--0--|----0--0-0-0--0-0-0--0-0-0--|
---------------------------------|----------------------------|---------------------------------|----------------------------|---------------------------------|----------------------------|---------------------------------|----------------------------|------------------------------2--|----2-----------------------|--0-0-0-0-0-0-0-0-0-0-0-0-0-0-0--|----0--0-0-0--0-0-0--0-0-0--|
-----------------------|------------------|---------------------|-----------------------|------------------|---------------------|-----------------------|------------------|---------------------|--------------------2--|------------------|----------2-------2--|--4----5----3----3--2--|------------------|----------2----2--3--|--2----3----1----1--0--|------------------|----------0----0--3--|
--------------------|-------------------------|------------------|--------------------|-------------------------|------------------|--------------------|-------------------------|------------------|--------------2--2--|--5----2--4-----4--------|------------------|--------------3--3--|--3----3--3--3--3--3--5--|------------------|--------------3--3--|--3----3--3--3--3--3--3--|------------------|
---------------------|--------------------|---------------------|---------------------|--------------------|---------------------|---------------------|--------------------|---------------------|------------------4--|--------------4--7--|------------7--7--9/-|----------5----5--2--|--------------2--5--|------------5--5--7/-|----------3----3--2--|--------------2--5--|------------5--5--7/-|
-------------------|---------------------|--------------------|-------------------|---------------------|--------------------|-------------------|---------------------|--------------------|------2------------|----------2-------2--|--------------2--2--|------2------------|----------2----2--3--|--------------3--3--|------0------------|----------0----0--3--|--------------3--3--|
-------------------------|------------------|---------------------|-------------------------|------------------|---------------------|-------------------------|------------------|---------------------|--5----2--4-----4--------|------------------|------------------4--|--3----3--3--3--3--3--5--|------------------|---------------------|--3----3--3--3--3--3--3--|------------------|----------12/-----2--|
-----------------------|-------------------|----------------------------|-----------------------|-------------------|----------------------------|--------------------4--|-------------------|----------------------------|------4----4--4--4-----|-------------------|----------------------------|--------------------2--|----------------2--|----2-----------------------|------2----2--2--2-----|----------------0--|----0--0-0-0--0-0-0--0-0-0--|
---------------------------------|----------------------------|---------------------------------|----------------------------|---------------------------------|----------------------------|---------------------------------|----------------------------|------------------------------2--|----2-----------------------|--0-0-0-0-0-0-0-0-0-0-0-0-0-0-0--|----0--0-0-0--0-0-0--0-0-0--|
------------------------------|----------------------------|------------------------------|----------------------------|------------------------------|----------------------------|------------------------------|----------------------------|------------------2--2--3--2--|----2-----------------------|--0-0-0-0-0-0-0-0-0--0--1--0--|----0--0-0-0--0-0-0--0-0-0--|
---------------------------------|----------------------------|---------------------------------|----------------------------|---------------------------------|----------------------------|---------------------------------|----------------------------|------------------------------2--|----2-----------------------|--0-0-0-0-0-0-0-0-0-0-0-0-0-0-0--|----0--0-0-0--0-0-0--0-0-0--|
----------------------------|----------------------------|----------------------------|----------------------------|----------------------------|----------------------------|----------------------------|----------------------------|-------------------------2--|----2-----------------------|--2-2-2--3-3-3--1--0--1--0--|----0--0-0-0--0-0-0--0-0-0--|
---------------------------------|----------------------------|---------------------------------|----------------------------|---------------------------------|----------------------------|---------------------------------|----------------------------|------------------------------2--|----2-----------------------|--0-0-0-0-0-0-0-0-0-0-0-0-0-0-0--|----0--0-0-0--0-0-0--0-0-0--|
------------------------------|----------------------------|------------------------------|----------------------------|------------------------------|----------------------------|------------------------------|----------------------------|------------------2--2--3--2--|----2-----------------------|--0-0-0-0-0-0-0-0-0--0--1--0--|----0--0-0-0--0-0-0--0-0-0--|
---------------------------------|----------------------------|---------------------------------|----------------------------|---------------------------------|----------------------------|---------------------------------|----------------------------|------------------------------2--|----2-----------------------|--0-0-0-0-0-0-0-0-0-0-0-0-0-0-0--|----0--0-0-0--0-0-0--0-0-0--|
-----------------------|------------------|----------------------|-----------------------|------------------|----------------------|-----------------------|------------------|----------------------|--------------------2--|------------------|----------------------|--4----5----3----3--2--|------------------|------------10--9--7--|--2----3----1----1--0--|------------------|----------------------|
-------------------|-----------------------|------------------------|-------------------|-----------------------|------------------------|--5----------------|-----------------------|------------------------|-------------------|--5-----------7-----9/-|------2--------2-----2--|--3----------------|--------------5-----7/-|------2--------2-----2--|-------------------|--3--------0-----0-----|---------0--0-----0--0--|
----------------------|-------------------|-----------------------|----------------------|-------------------|-----------------------|----------------------|-------------------|-----------------------|----------------------|--7----------------|--9-----------7-----9/-|------------10--9--7--|-------------------|--------------5-----7/-|----------------------|--5----------------|--7--------0-----0-----|
------------------------|----------------------|-------------------|------------------------|----------------------|-------------------|------------------------|----------------------|--5----------------|------2--------2-----2--|----------------------|-------------------|------2--------2-----2--|------------10--9--7--|--3----------------|---------0--0-----0--0--|----------------------|-------------------|
-----------------------|------------------------|----------------------|-----------------------|------------------------|----------------------|-----------------------|------------------------|----------------------|--5-----------7-----9/-|------2--------2-----2--|----------------------|--------------5-----7/-|------2--------2-----2--|------------10--9--7--|--3--------0-----0-----|---------0--0-----0--0--|----------------------|
-------------------|-----------------------|----------------------------|-------------------|-----------------------|----------------------------|-------------------|-----------------------|----------------------------|--7----------------|--9-----------7-----9/-|----------------------------|-------------------|--------------5-----7/-|----------------------------|--5----------------|--7--------0-----0-----|----0--0-0-0--0-0-0--0-0-0--|
---------------------------------|----------------------------|---------------------------------|----------------------------|---------------------------------|----------------------------|---------------------------------|----------------------------|------------------------------2--|----2-----------------------|--0-0-0-0-0-0-0-0-0-0-0-0-0-0-0--|----0--0-0-0--0-0-0--0-0-0--|
------------------------------|----------------------------|------------------------------|----------------------------|------------------------------|----------------------------|------------------------------|----------------------------|------------------2--2--3--2--|----2-----------------------|--0-0-0-0-0-0-0-0-0--0--1--0--|----0--0-0-0--0-0-0--0-0-0--|
---------------------------------|----------------------------|---------------------------------|----------------------------|---------------------------------|----------------------------|---------------------------------|----------------------------|------------------------------2--|----2-----------------------|--0-0-0-0-0-0-0-0-0-0-0-0-0-0-0--|----0--0-0-0--0-0-0--0-0-0--|
----------------------------|----------------------------|----------------------------|----------------------------|----------------------------|----------------------------|----------------------------|----------------------------|-------------------------2--|----2-----------------------|--2-2-2--3-3-3--1--0--1--0--|----0--0-0-0--0-0-0--0-0-0--|
---------------------------------|----------------------------|---------------------------------|----------------------------|---------------------------------|----------------------------|---------------------------------|----------------------------|------------------------------2--|----2-----------------------|--0-0-0-0-0-0-0-0-0-0-0-0-0-0-0--|----0--0-0-0--0-0-0--0-0-0--|
------------------------------|----------------------------|------------------------------|----------------------------|------------------------------|----------------------------|------------------------------|----------------------------|------------------2--2--3--2--|----2-----------------------|--0-0-0-0-0-0-0-0-0--0--1--0--|----0--0-0-0--0-0-0--0-0-0--|
---------------------------------|----------------------------|---------------------------------|----------------------------|---------------------------------|----------------------------|---------------------------------|----------------------------|------------------------------2--|----2-----------------------|--0-0-0-0-0-0-0-0-0-0-0-0-0-0-0--|----0--0-0-0--0-0-0--0-0-0--|
-----------------------|------------------|----------------------|-----------------------|------------------|----------------------|-----------------------|------------------|----------------------|--------------------2--|------------------|----------------------|--4----5----3----3--2--|------------------|------------10--9--7--|--2----3----1----1--0--|------------------|----------------------|
-------------------|-----------------------|------------------------|-------------------|-----------------------|------------------------|--5----------------|-----------------------|------------------------|-------------------|--5-----------7-----9/-|------2--------2-----2--|--3----------------|--------------5-----7/-|------2--------2-----2--|-------------------|--3--------0-----0-----|---------0--0-----0--0--|
----------------------|-------------------|-----------------------|----------------------|-------------------|-----------------------|----------------------|-------------------|-----------------------|----------------------|--7----------------|--9-----------7-----9/-|------------10--9--7--|-------------------|--------------5-----7/-|----------------------|--5----------------|--7--------0-----0-----|
------------------------|----------------------|-------------------|------------------------|----------------------|-------------------|------------------------|----------------------|--5----------------|------2--------2-----2--|----------------------|-------------------|------2--------2-----2--|------------10--9--7--|--3----------------|---------0--0-----0--0--|----------------------|-------------------|
-----------------------|------------------------|----------------------|-----------------------|------------------------|----------------------|-----------------------|------------------------|----------------------|--5-----------7-----9/-|------2--------2-----2--|----------------------|--------------5-----7/-|------2--------2-----2--|------------10--9--7--|--3--------0-----0-----|---------0--0-----0--0--|----------------------|
-------------------|-----------------------|-------------------------|-------------------|-----------------------|-------------------------|-------------------|-----------------------|-------------------------|--7----------------|--9-----------7-----9/-|-------2--------2-----2--|-------------------|--------------5-----7/-|-------2--------2-----2--|--5----------------|--7--------0-----0-----|----0--0--0--0--0--0--0--|
--------------------------|--------------------------|--------------------------|--------------------------|--------------------------|--------------------------|--------2--------9--7--5--|--------5--------5-----5--|--------2-----------------|--3--3--3--3--3--3--3--3--|--0--0--0--0--0-----------|--------------------------|
--------------------------|-------------------------|--------------------------|--------------------------|-------------------------|--------------------------|--------------------------|-------------------------|--------------------------|-----------------7-----9/-|-------2--------2-----2--|--------2--------9--7--5--|--------5--------5-----7/-|-------2--------2-----2--|--------2-----------------|--3--3--3--3--3-----0-----|----0--0--0--0--0--0--0--|--0--0--0--0--0-----------|
--------------------------|--------------------------|-------------------------|--------------------------|--------------------------|-------------------------|--------------------------|--------------------------|-------------------------|--------------------------|-----------------7-----9/-|-------2--------2-----2--|--------7--------7-----7--|--------9--------5-----7/-|-------2--------2-----2--|--5--5--5--5--5--5--5--5--|--7--7--7--7--7-----0-----|----0--0--0--0--0--0--0--|
--------------------------|--------------------------|--------------------------|--------------------------|--------------------------|--------------------------|--------2--------9--7--5--|--------5--------5-----5--|--------2-----------------|--3--3--3--3--3--3--3--3--|--0--0--0--0--0-----------|--------------------------|
--------------------------|-------------------------|--------------------------|--------------------------|-------------------------|--------------------------|--------------------------|-------------------------|--------------------------|-----------------7-----9/-|-------2--------2-----2--|--------2--------9--7--5--|--------5--------5-----7/-|-------2--------2-----2--|--------2-----------------|--3--3--3--3--3-----0-----|----0--0--0--0--0--0--0--|--0--0--0--0--0-----------|
--------------------------|--------------------------|-----------------------|--------------------------|--------------------------|-----------------------|--------------------------|--------------------------|-----------------------|--------------------------|-----------------7--7--7--|--9/-------------------|--------7--------7-----7--|--------9--------5--5--5--|--7/-------2--2--2--2--|--5--5--5--5--5--5--5--5--|--7--7--7--7--7-----------|-----------0--0--0--0--|
--------------------------|---------------------------|--------------------------|---------------------------|--------------------------|---------------------------|--------------------------|---------------------------|--2--2--2--2--2--1--2--1--|--1/-2--2--2--2-2-2--2--2--|--0--0--0--0--0-----0-----|--------0--0--0-0-0--0--0--|
-----------------------------|--------------------------|-----------------------------|--------------------------|--12/-11--------11/-9--------|--8/-9--------------------|-----------------------------|--------------------------|--10/-9---2--2--9/--7--2--2--|--6/-7--2--2--2--2--2--2--|----------0--0---------0--0--|--------0--0--0--0--0--0--|
--------------------------|--------------------------|--------------------------|--------------------------|--------------------------|--------------------------|-----------------4-----4--|--4/-5--5--5--5--5--5--5--|--2--2--2--2--2--2--2--2--|--2/-3--3--3--3--3--3--3--|--0--0--0--0--0-----0-----|--------------------------|
--------------------------|--------------------------|--------------------------|--------------------------|--------------------------|--------------------------|--5/-7--7--7--7--7--7--7--|--4/-5--------------------|--3/-5--5--5--5--5--5--5--|--2/-3--2--2--2--2--2--2--|--------------------------|--------0--0--0--0--0--0--|
--------------------------|---------------------------|--------------------------|---------------------------|--------------------------|---------------------------|--------------------------|---------------------------|--2--2--2--2--2--1--2--1--|--1/-2--2--2--2-2-2--2--2--|--0--0--0--0--0-----0-----|--------0--0--0-0-0--0--0--|
-----------------------------|--------------------------|-----------------------------|--------------------------|--12/-11--------11/-9--------|--8/-9--------------------|-----------------------------|--------------------------|--10/-9---2--2--9/--7--2--2--|--6/-7--2--2--2--2--2--2--|----------0--0---------0--0--|--------0--0--0--0--0--0--|
--------------------------|--------------------------|--------------------------|--------------------------|--------------------------|--------------------------|-----------------4-----4--|--4/-5--5--5--5--5--5--5--|--2--2--2--2--2--2--2--2--|--2/-3--3--3--3--3--3--3--|--0--0--0--0--0-----0-----|--------------------------|
--------------------------|--------------------------|--------------------------|--------------------------|--------------------------|--------------------------|--5/-7--7--7--------------|--------------------------|--3/-5--5--5--6h-7--------|--------2--2--2--2--2--2--|--------------------5h-7--|--0h-1--0--0--0--0--0--0--|
--------------------------|---------------------------|--------------------------|---------------------------|--------------------------|---------------------------|--------------------------|---------------------------|--2--2--2--2--2--1--2--1--|--1/-2--2--2--2-2-2--2--2--|--0--0--0--0--0-----0-----|--------0--0--0-0-0--0--0--|
-----------------------------|--------------------------|-----------------------------|--------------------------|--12/-11--------11/-9--------|--8/-9--------------------|-----------------------------|--------------------------|--10/-9---2--2--9/--7--2--2--|--6/-7--2--2--2--2--2--2--|----------0--0---------0--0--|--------0--0--0--0--0--0--|
--------------------------|--------------------------|--------------------------|--------------------------|--------------------------|--------------------------|-----------------4-----4--|--4/-5--5--5--5--5--5--5--|--2--2--2--2--2--2--2--2--|--2/-3--3--3--3--3--3--3--|--0--0--0--0--0-----0-----|--------------------------|
--------------------------|--------------------------|--------------------------|--------------------------|--------------------------|--------------------------|--5/-7--7--7--7--7--7--7--|--4/-5--------------------|--3/-5--5--5--5--5--5--5--|--2/-3--2--2--2--2--2--2--|--------------------------|--------0--0--0--0--0--0--|
--------------------------|---------------------------|--------------------------|---------------------------|--------------------------|---------------------------|--------------------------|---------------------------|--2--2--2--2--2--1--2--1--|--1/-2--2--2--2-2-2--2--2--|--0--0--0--0--0-----0-----|--------0--0--0-0-0--0--0--|
-----------------------------|--------------------------|-----------------------------|--------------------------|--12/-11--------11/-9--------|--8/-9--------------------|-----------------------------|--------------------------|--10/-9---2--2--9/--7--2--2--|--6/-7--2--2--2--2--2--2--|----------0--0---------0--0--|--------0--0--0--0--0--0--|
--------------------------|--------------------------|--------------------------|--------------------------|--------------------------|--------------------------|-----------------4-----4--|--4/-5--5--5--5--5--5--5--|--2--2--2--2--2--2--2--2--|--2/-3--3--3--3--3--3--3--|--0--0--0--0--0-----0-----|--------------------------|
--------------------------|-----------------------|---------------------|--------------------------|-----------------------|---------------------|--------------------------|-----------------------|---------------------|--5/-7--7--7--------------|-----------------------|------------1--------|--3/-5--5--5--6h-7--------|--------2--2--2--------|------------1--2--2--|--------------------5h-7--|--0h-1--0--0--0--------|---------------0--0--|
-----------------------|---------------------|-----------------------|-----------------------|---------------------|-----------------------|-----------------------|---------------------|-----------------------|--1/-2-----------------|------------1--------|--1/-2-----------------|--1/-2--2--2--2--------|------------1--2--2--|--1/-2--2--2--2--------|--------0--0--0--------|---------------0--0--|--------0--0--0--------|
---------------------|--------------------------|--------------------------|---------------------|--------------------------|--------------------------|---------------------|--------------------------|--------------------------|------------4--4--4--|--4/-5--5--5--5--5--5--5--|--5--5--5--5--5--4--4--4--|------------2--2--2--|--2/-3--3--3--3--3--3--3--|--3--3--3--3--3--2--2--2--|---------------------|--------------------------|--------------------------|
-----------------------|---------------------|-----------------------|-----------------------|---------------------|-----------------------|-----------------------|---------------------|-----------------------|--4/-5-----------------|------------1--------|--1/-2-----------------|--2/-3--2--2--2--------|------------1--2--2--|--1/-2--2--2--2--------|--------0--0--0--------|---------------0--0--|--------0--0--0--------|
---------------------|-----------------------|---------------------|---------------------|-----------------------|---------------------|---------------------|-----------------------|---------------------|------------1--------|--1/-2-----------------|------------4--4--4--|------------1--2--2--|--1/-2--2--2--2--------|------------2--2--2--|---------------0--0--|--------0--0--0--------|---------------------|
--------------------------|--------------------------|--------------------------|--------------------------|--------------------------|--------------------------|--4/-5--5--5--5--5--5--5--|--5/-7--7--7--------------|--2/-3--3--3--3--3--3--3--|--3/-5--5--5--6h-7--------|--------------------------|--------------------5h-7--|
--------------------------|--------------------------|--------------------------|--------------------------|--------------------------|--------------------------|--------------------------|--------------------------|--------2--2--2--2--2--2--|--2--2--2--2--2--1--2--1--|--0h-1--0--0--0--0--0--0--|--0--0--0--0--0-----0-----|
---------------------------|-----------------------------|---------------------------|-----------------------------|---------------------------|--12/-11--------11/-9--------|---------------------------|-----------------------------|--1/-2--2--2--2-2-2--2--2--|--10/-9---2--2--9/--7--2--2--|--------0--0--0-0-0--0--0--|----------0--0---------0--0--|
--------------------------|--------------------------|--------------------------|--------------------------|--8/-9--------------------|--------------------------|--------------------------|-----------------4-----4--|--6/-7--2--2--2--2--2--2--|--2--2--2--2--2--2--2--2--|--------0--0--0--0--0--0--|--0--0--0--0--0-----0-----|
--------------------------|--------------------------|--------------------------|--------------------------|--------------------------|--------------------------|--4/-5--5--5--5--5--5--5--|--5/-7--7--7--7--7--7--7--|--2/-3--3--3--3--3--3--3--|--3/-5--5--5--5--5--5--5--|--------------------------|--------------------------|
--------------------------|--------------------------|--------------------------|--------------------------|--------------------------|--------------------------|--4/-5--------------------|--------------------------|--2/-3--2--2--2--2--2--2--|--2--2--2--2--2--1--2--1--|--------0--0--0--0--0--0--|--0--0--0--0--0-----0-----|
---------------------------|-----------------------------|---------------------------|-----------------------------|---------------------------|--12/-11--------11/-9--------|---------------------------|-----------------------------|--1/-2--2--2--2-2-2--2--2--|--10/-9---2--2--9/--7--2--2--|--------0--0--0-0-0--0--0--|----------0--0---------0--0--|
--------------------------|--------------------------|--------------------------|--------------------------|--8/-9--------------------|--------------------------|--------------------------|-----------------4-----4--|--6/-7--2--2--2--2--2--2--|--2--2--2--2--2--2--2--2--|--------0--0--0--0--0--0--|--0--0--0--0--0-----0-----|
--------------------------|--------------------------|--------------------------|--------------------------|--------------------------|--------------------------|--4/-5--5--5--5--5--5--5--|--5/-7--7--7--------------|--2/-3--3--3--3--3--3--3--|--3/-5--5--5--6h-7--------|--------------------------|--------------------5h-7--|
----------------------------|---------------------------------|----------------------------|---------------------------------|----------------------------|---------------------------------|----------------------------|---------------------------------|--2-------------------------|------------------------------2--|--0----0-0-0--0-0-0--0-0-0--|--0-0-0-0-0-0-0-0-0-0-0-0-0-0-0--|
----------------------------|------------------------------|----------------------------|------------------------------|----------------------------|------------------------------|----------------------------|------------------------------|----2-----------------------|------------------2--2--3--2--|----0--0-0-0--0-0-0--0-0-0--|--0-0-0-0-0-0-0-0-0--0--1--0--|
----------------------------|---------------------------------|----------------------------|---------------------------------|----------------------------|---------------------------------|----------------------------|---------------------------------|----2-----------------------|------------------------------2--|----0--0-0-0--0-0-0--0-0-0--|--0-0-0-0-0-0-0-0-0-0-0-0-0-0-0--|
----------------------------|----------------------------|----------------------------|----------------------------|----------------------------|----------------------------|----------------------------|----------------------------|----2-----------------------|-------------------------2--|----0--0-0-0--0-0-0--0-0-0--|--2-2-2--3-3-3--1--0--1--0--|
----------------------------|---------------------------------|----------------------------|---------------------------------|----------------------------|---------------------------------|----------------------------|---------------------------------|----2-----------------------|------------------------------2--|----0--0-0-0--0-0-0--0-0-0--|--0-0-0-0-0-0-0-0-0-0-0-0-0-0-0--|
----------------------------|------------------------------|----------------------------|------------------------------|----------------------------|------------------------------|----------------------------|------------------------------|----2-----------------------|------------------2--2--3--2--|----0--0-0-0--0-0-0--0-0-0--|--0-0-0-0-0-0-0-0-0--0--1--0--|
----------------------------|---------------------------------|----------------------------|---------------------------------|----------------------------|---------------------------------|----------------------------|---------------------------------|----2-----------------------|------------------------------2--|----0--0-0-0--0-0-0--0-0-0--|--0-0-0-0-0-0-0-0-0-0-0-0-0-0-0--|
----------------------------|----------------------------|----------------------------|----------------------------|----------------------------|-----------------7--9-------|----------------------------|----------------------------|----2-----------------------|--2----3----4----5--7----2--|----0--0-0-0--0-0-0--0-0-0--|--0----1----2------------0--|
----------------------------|---------------------------------|----------------------------|---------------------------------|----------------------------|---------------------------------|----------------------------|---------------------------------|----2-----------------------|------------------------------2--|----0--0-0-0--0-0-0--0-0-0--|--0-0-0-0-0-0-0-0-0-0-0-0-0-0-0--|
----------------------------|------------------------------|----------------------------|------------------------------|----------------------------|------------------------------|----------------------------|------------------------------|----2-----------------------|------------------2--2--3--2--|----0--0-0-0--0-0-0--0-0-0--|--0-0-0-0-0-0-0-0-0--0--1--0--|
----------------------------|---------------------------------|----------------------------|---------------------------------|----------------------------|---------------------------------|----------------------------|---------------------------------|----2-----------------------|------------------------------2--|----0--0-0-0--0-0-0--0-0-0--|--0-0-0-0-0-0-0-0-0-0-0-0-0-0-0--|
----------------------------|----------------------------|----------------------------|----------------------------|----------------------------|----------------------------|----------------------------|----------------------------|----2-----------------------|-------------------------2--|----0--0-0-0--0-0-0--0-0-0--|--2-2-2--3-3-3--1--0--1--0--|
----------------------------|---------------------------------|----------------------------|---------------------------------|----------------------------|---------------------------------|----------------------------|---------------------------------|----2-----------------------|------------------------------2--|----0--0-0-0--0-0-0--0-0-0--|--0-0-0-0-0-0-0-0-0-0-0-0-0-0-0--|
----------------------------|------------------------------|----------------------------|------------------------------|----------------------------|------------------------------|----------------------------|------------------------------|----2-----------------------|------------------2--2--3--2--|----0--0-0-0--0-0-0--0-0-0--|--0-0-0-0-0-0-0-0-0--0--1--0--|
----------------------------|------------------------|----------------------------|------------------------|----------------------------|------------------------|----------------------------|------------------------|----2-----------------------|--4----5----3----3------|----0--0-0-0--0-0-0--0-0-0--|--2----3----1----1--2-2-|
--------------------------|-------||--------------------------|-------||--------------------------|-------||--------------------------|----2--||---------------------2----|----2--||--2--3-3-3--1--0--1--0----|----0--||
Tap to rate this tab
 
# A B C D E F G H I J K L M N O P Q R S T U V W X Y Z