Hawthorne Heights - Ohio Is For Lovers Acoustic tab

Hawthorne Heights
Ohio Is for Lovers (Acoustic)
Tabbed By Kelvin Bungcayao

This is my first tab, and I suck so yea. I think it sounds pretty right.
just need to get the strumming going with the music =) if i put and x with
a number, it may vary in the song itself. But thats how i'd play it. By the way
the whole song is in sequential order. =) take care latez

* = palm muted
/ = slide up
\ = slide down

Intro

---------------|---------------|---------------|-4------4------|x2-2-x5---2-x4---|-4------2------|
then >x4
---------------|---------------|---------------|-4------4------| x2-2-x5---2-x4---|-0------2------|
end with-------------4---2---0--strummed a few times
Verse
--------------------------------------------------|--------------------------------------------------|-----------4-----/---6-----/--8-------------------|-4---6-----6-x4--/---8-x2--/--9--x2------4--4-----|-4-/-6-----------------------------------2--2-----|-2---4-----------------------------------0--2-----|
(figure out strumming of the last two chords with the song)
--------------------------------------------------|--------------------------------------------------|-----------4-----/---6-----/--8-------------------|-4---6-----6-x4--/---8-x2--/--9--x2------4--------|-4-/-6-----------------------------------2--------|-2---4-----------------------------------0----7\0-|
------------------------|------------------------|------------------------|-4-----4-----4----------|-2-x8--2-x3--2-x12------|-4-----2-----0----------| *
--------------------------------------------------|--------------------------------------------------|-----------4-----/---6-----/--8-------------------|-4---6-----6-x4--/---8-x2--/--9--x2------4--4-----|-4-/-6-----------------------------------2--2-----|-2---4-----------------------------------0--2-----|
Chorus
--------------------------------------------------|--------------------------------------------------|--------------------------------------------------|-4--xx--4--xx--44--x--44-x4-44--44--x--44--x4-44--|-2--xx--2--xx--22--x--22-x2-22--22--x--22--x2-22--|-0--xx--2--xx--44--x--44-x2-22--44--x--44--x2-22--| * *
------------------|------------------|------------------|-44--x--44-x4-44--| x2-22--x--22-x2-22--|-00--x--00-x2-22--| *
-----------------|-----------------|-----------------|-4-------4-------|x2-2-x14---2-x8----|-4-------2-------| * *
then >x2
------------------|------------------|------------------|-4-------4--------| x2-2-x14---2-x8-----|-0-------2--------| * *
Verse
--------------------------------------------------|--------------------------------------------------|-----------4-----/---6-----/--8-------------------|-4---6-----6-x4--/---8-x2--/--9--x2------4--4-----|-4-/-6-----------------------------------2--2-----|-2---4-----------------------------------0--2-----|
(figure out strumming of the last two chords with the song)
--------------------------------------------------|--------------------------------------------------|-----------4-----/---6-----/--8-------------------|-4---6-----6-x4--/---8-x2--/--9--x2------4--------|-4-/-6-----------------------------------2--------|-2---4-----------------------------------0----7\0-|
------------------------|------------------------|------------------------|-4-----4-----4----------|-2-x8--2-x3--2-x12------|-4-----2-----0----------| *
--------------------------------------------------|--------------------------------------------------|-----------4-----/---6-----/--8-------------------|-4---6-----6-x4--/---8-x2--/--9--x2------4--4-----|-4-/-6-----------------------------------2--2-----|-2---4-----------------------------------0--2-----|
Chorus
--------------------------------------------------|--------------------------------------------------|--------------------------------------------------|-4--xx--4--xx--44--x--44-x4-44--44--x--44--x4-44--|-2--xx--2--xx--22--x--22-x2-22--22--x--22--x2-22--|-0--xx--2--xx--44--x--44-x2-22--44--x--44--x2-22--| * *
------------------|------------------|------------------|-44--x--44-x4-44--| x2-22--x--22-x2-22--|-00--x--00-x2-22--| *
-------------------|-------------------|-------------------|-44--x--44--x4-44--| x2-22--x--22--x2-22--|-44--x--44--x2-22--| *
------------------|------------------|------------------|-44--x--44-x4-44--| x2-22--x--22-x2-22--|-00--x--00-x2-22--| *
Outro
-----------------|-----------------|-----------------|------4----4-----| x2--2-2-2---2-2----|-4-4--4--2-------| >x2
-----------------|-----------------|-----------------|------4----4-----| x2--2-2-2---2-2----|-0-0--0--2-------|
End with strumming --- --- --- -4- -2- -0- a few times Verse
--------------------------------------------------|--------------------------------------------------|-----------4-----/---6-----/--8-------------------|-4---6-----6-x4--/---8-x2--/--9--x2------4--4-----|-4-/-6-----------------------------------2--2-----|-2---4-----------------------------------0--2-----|
(figure out strumming of the last two chords with the song)
--------------------------------------------------|--------------------------------------------------|-----------4-----/---6-----/--8-------------------|-4---6-----6-x4--/---8-x2--/--9--x2------4--------|-4-/-6-----------------------------------2--------|-2---4-----------------------------------0----7\0-|
------------------------|------------------------|------------------------|-4-----4-----4----------|-2-x8--2-x3--2-x12------|-4-----2-----0----------| *
--------------------------------------------------|--------------------------------------------------|-----------4-----/---6-----/--8-------------------|-4---6-----6-x4--/---8-x2--/--9--x2------4--4-----|-4-/-6-----------------------------------2--2-----|-2---4-----------------------------------0--2-----|
Chorus
--------------------------------------------------|--------------------------------------------------|--------------------------------------------------|-4--xx--4--xx--44--x--44-x4-44--44--x--44--x4-44--|-2--xx--2--xx--22--x--22-x2-22--22--x--22--x2-22--|-0--xx--2--xx--44--x--44-x2-22--44--x--44--x2-22--| * *
------------------|------------------|------------------|-44--x--44-x4-44--| x2-22--x--22-x2-22--|-00--x--00-x2-22--| *
-------------------|-------------------|-------------------|-44--x--44--x4-44--| x2-22--x--22--x2-22--|-44--x--44--x2-22--| *
------------------|------------------|------------------|-44--x--44-x4-44--| x2-22--x--22-x2-22--|-00--x--00-x2-22--| *
Tap to rate this tab
 
# A B C D E F G H I J K L M N O P Q R S T U V W X Y Z