Hayward Justin - Nostradamus tab

h - hammer on
p - pull off
^ - bend
/ - slide
PM (or a |-| above the note)- palm mute


This is my first try at a tab, hope you like it. I think I'm the fist to do this song

Rob finishes singing the opera type thing

|----| |----------------------||-------------------------| REPEAT--| x3|-----------------------------------||-----------------------------------||-0h2------2------------------------||-0--0-0-0-0--0-0-0-0-0-0-----------||-----------------------------------|
|-------------------------||-------------------------||-------------------------||-5-5-4-5-----------------||-3-3-2-3-----------------||-------------------------|
|----| |---------------------||-------------------------| REPEAT--| x3|-----------------------------------||-----------------------------------||-0h2------2------------------------||-0--0-0-0-0--0-0-0-0-0-0-----------||-----------------------------------|
|-------------------------||-------------------------||-------------------------||-5-5-7-2-----------------||-3-3-5-0-----------------||-------------------------|
|----| |----------------------||-------------------------| REPEAT--| x3|-----------------------------------||-----------------------------------||-0h2------2------------------------||-0--0-0-0-0--0-0-0-0-0-0-----------||-----------------------------------|
|-------------------------||-------------------------||-------------------------||-5-5-4-5-----------------||-3-3-2-3-----------------||-------------------------|
|----| |----------------------||-------------------------| REPEAT--| x3|-----------------------------------||-----------------------------------||-0h2------2------------------------||-0--0-0-0-0--0-0-0-0-0-0-----------||-----------------------------------|
|-------------------------||-------------------------||-------------------------||-5-5-7-2-----------------||-3-3-5-0-----------------||-------------------------|
PM|--| |--| |---------------------||---------------------------| REPEAT--| x4|-------------------------------------||-------------------------------------||-7-----5-----7-----5-7/8-5-----------||---0-0---0-0---0-0-------------------||-------------------------------------|
|--------------------------------||--------------------------------||--------------------------------||--------------------------------||-7-5-7-----------7-5-7----------||-5-3-5--3-5-6-3--5-3-5--3-5-6-3-|
PM|--| |--| |---------------------||---------------------------| REPEAT--| x4|-------------------------------------||-------------------------------------||-7-----5-----7-----5-7/8-5-----------||---0-0---0-0---0-0-------------------||-------------------------------------|
|--------------------------------||--------------------------------||--------------------------------||--------------------------------||-7-5-7-----------7-5-7----------||-5-3-5--3-5-6-3--5-3-5--3-5-6-3-|
|--------------------------------------------------| REPEAT x2|--------------------------------------------------||-------------------------9------------------------||-------7----9-------7--7----------7----9------7-9-||-----7----7-------7-------------7----7------7-----||-5-------------5------------5-------------5-------|
|----------------------------------| REPEAT x2|----------------------------------||----------------------------------||-9--10-9------7--9-7-5---5--7-5-7-||-7---8-7-12---5--7-5-3---3--5-3-5-||---------10-----------------------|
PM|-| |-| |-| |-| |------------------------||---------------------------------------------| REPEAT--| x2|-------------------------------------------------------||-------------------------------------------------------||-------------------------------------------------------||-7-0-5-7--0--7-0-8-5--7-0-5-7----------5/7-------------||-5-0-3-5--0--5-0-6-3--5-0-3-5--5-0-3-5-----7-----------|
PM|--| |--| |---------------------||---------------------------| REPEAT--| x4|-------------------------------------||-------------------------------------||-7-----5-----7-----5-7/8-5-----------||---0-0---0-0---0-0-------------------||-------------------------------------|
|--------------------------------||--------------------------------||--------------------------------||--------------------------------||-7-5-7-----------7-5-7----------||-5-3-5--3-5-6-3--5-3-5--3-5-6-3-|
PM|--| |--| |---------------------||---------------------------| REPEAT--| x4|-------------------------------------||-------------------------------------||-7-----5-----7-----5-7/8-5-----------||---0-0---0-0---0-0-------------------||-------------------------------------|
|--------------------------------||--------------------------------||--------------------------------||--------------------------------||-7-5-7-----------7-5-7----------||-5-3-5--3-5-6-3--5-3-5--3-5-6-3-|
|--------------------------------------------------| REPEAT x2|--------------------------------------------------||-------------------------9------------------------||-------7----9-------7--7----------7----9------7-9-||-----7----7-------7-------------7----7------7-----||-5-------------5------------5-------------5-------|
|----------------------------------| REPEAT x2|----------------------------------||----------------------------------||-9--10-9------7--9-7-5---5--7-5-7-||-7---8-7-12---5--7-5-3---3--5-3-5-||---------10-----------------------|
|-| |-| |-| |-| |------------------------||---------------------------------------------| REPEAT--| x2|-------------------------------------------------------||-------------------------------------------------------||-------------------------------------------------------||-7-0-5-7--0--7-0-8-5--7-0-5-7----------5/7-------------||-5-0-3-5--0--5-0-6-3--5-0-3-5--5-0-3-5-----7-----------|
|--------------------------------------| REPEAT x4|--------------------------------------||--------------------------------------||--------------------------------------||--------7---10-9-10--9-7-5------------||-7-9-10---7----------------9-10-9-7-5-|
(This part isn't fully done. I may come back to it later, but use this as a base, and play around with it)|--------------------------------------------------------------||--------------------------------------------------------------||--------------------------------------------------------------||-----9-10-12-14-14-9-10-12-14-9-10-12-14-7-8-10-12------------||-7-7-----------------------------------------------9-10-12-14-||--------------------------------------------------------------|
|----| |----------------------||-------------------------| REPEAT--| x3|-----------------------------------||-----------------------------------||-0h2------2------------------------||-0--0-0-0-0--0-0-0-0-0-0-----------||-----------------------------------|
|-------------------------||-------------------------||-------------------------||-5-5-4-5-----------------||-3-3-2-3-----------------||-------------------------|
|----| |---------------------||-------------------------| REPEAT--| x3|-----------------------------------||-----------------------------------||-0h2------2------------------------||-0--0-0-0-0--0-0-0-0-0-0-----------||-----------------------------------|
|-------------------------||-------------------------||-------------------------||-5-5-7-2-----------------||-3-3-5-0-----------------||-------------------------|
(this part is the backup to the solo also) |-----| |------------||-----------------------------------------||-----------------------------------------||-----------------------------------------||-3p2-2--0-0-0--3p2-2-5-0-3p2-0-0-0-3p2---||-1p0-0--0-0-0--1p0-0-3-2-1p0-0-0-0-1p0---||-----------------------------------------|
(I haven't figured out the solo, I'll put it on if i ever get it)
|------------------------| REPEAT x3|------------------------||------------------------||------------------------||-9-10-9---9-10-9-7-9-10-||-7--8-7---7--8-7-5-7--8-|
|--------------------------------------------------| REPEAT x2|--------------------------------------------------||-------------------------9------------------------||-------7----9-------7--7----------7----9------7-9-||-----7----7-------7-------------7----7------7-----||-5-------------5------------5-------------5-------|
|----------------------------------| REPEAT x2|----------------------------------||----------------------------------||-9--10-9------7--9-7-5---5--7-5-7-||-7---8-7-12---5--7-5-3---3--5-3-5-||---------10-----------------------|
|-| |-| |-| |-| |------------------------||---------------------------------------------| REPEAT--| x2|-------------------------------------------------------||-------------------------------------------------------||-------------------------------------------------------||-7-0-5-7--0--7-0-8-5--7-0-5-7----------5/7-------------||-5-0-3-5--0--5-0-6-3--5-0-3-5--5-0-3-5-----7-----------|
PM|--| |--| |---------------------||---------------------------| REPEAT--| x2|-------------------------------------||-------------------------------------||-7-----5-----7-----5-7/8-5-----------||---0-0---0-0---0-0-------------------||-------------------------------------|
|--------------------------------| REPEAT x4|--------------------------------||--------------------------------||--------------------------------||-7-5-7-----------7-5-7----------||-5-3-5--3-5-6-3--5-3-5--3-5-6-3-|
|-------------------------||-------------------------||-------------------------||-------------------------||-----------3-5-3-1-3-----||-9-7-5-7-5-----------2-4-|
And thats it
Tap to rate this tab
 
# A B C D E F G H I J K L M N O P Q R S T U V W X Y Z