Heaven Shall Burn – Of Forsaken Poets tab



Heaven Shall Burn
"Of Forsaken Poets"
 Tuning: Drop C (DAFCGC)



|-| ------------||-| ------------||-| ------------||-| 0~--1-1-1-1-||-| 0~--1-1-1-1-||-| 0~--1-1-1-1-|
|-| ----------------------------------------------------------||-| ----------------------------------------------------------||-| ----------------------------------------------------------||-| ---------7-7-------10-10-------9-9------------------------||-| ---------5-5--------8--8-------7-7-------1-1-1-1-1-1-1-1--||-| 00000000-----00000-------00000-----00000-1-1-1-1-1-1-1-1--| ........ ..... ..... .....
|-| ------------------------||-| ------------------------||-| ------------------------||-| ------------------------||-| ---7-8----5-7-----------||-| 00-----00-----6-5-0-3-5-| .. .. .
|-| ------------------------||-| ------------------------||-| ------------------------||-| ------------------------||-| ---7-8----5-7-----------||-| 00-----00-----1-3-0-3-5-| .. .. .
|-| -----------------------------||-| -----------------------------||-| -----------------------------||-| 8----7-----------------------||-| 6----5----3---1----5---1---0-||-| --00---00-3-0-1-00-5-0-1-0-0-| .. .. . .. . .
|-| --------------------------||-| --------------------------||-| --------------------------||-| 8----7-----------10\8---5-||-| 6----5------------8\6---3-||-| --00---00-3-0-1-0-----0---|
Let each note ring
|-| --------||-| --------||-| --------||-| 8-7-5-8-||-| 6-5-3-6-||-| --------|
|-| -----------------------------------||-| -----------------------------------||-| -----------------------------------||-| 7-7-------7-7-------5-5------------||-| 5-5-------5-5-------3-3----1-1-1-1-||-| ----00000-----00000-----00-1-1-1-1-| ..... ..... ..
|-| ----------------------------------------------||-| ----------------------------------------------||-| ----------------------------------------------||-| ---------7-7-------10-10-------9-9------------||-| ---------5-5--------8--8-------7-7----1-1-1-1-||-| 00000000-----00000-------00000-----00-1-1-1-1-| ........ ..... ..... ..
|-| ----------||-| ----------||-| ----------||-| ----------||-| 0-5-8-7-3-||-| 0-5-8-7-3-|
|-| ------------------------------||-| ------------------------------||-| ------------------------------||-| ------7-------8---7---5---5-7-||-| 0-5-7---7-5-0-----------------||-| ----------------0---0---0-----| . . . . . . . . .
|-| --------------------------------||-| --------------------------------||-| --------------------------------||-| ------7-------10---8---7--------||-| 0-5-7---7-5-0--------------8-10-||-| -----------------0---0---0------| . . . . . . . . .
|-| ------------------------------||-| ------------------------------||-| ------------------------------||-| ------7-------8---7---5---5-7-||-| 0-5-7---7-5-0-----------------||-| ----------------0---0---0-----| . . . . . . . . .
|-| ---------------------------------||-| ---------------------------------||-| ---------------------------------||-| ------7--------------------------||-| 0-5-7------8----10---8---7---3-5-||-| --------00---00----0---0---0-----| . . . .. .. . . .
|-| -----------------------------------------------------------||-| -----------------------------------------------------------||-| -----------------------------------------------------------||-| 6----3----5----6-5---3---5---6---8-6---5-----5---6---------||-| -----------------------------------------8---------1-1-1-1-||-| --00---00---00-----0---0---0---0-----0-----0---0---1-1-1-1-| .. .. .. . . . . . . .
|-| -------------------------------------------------------------||-| -------------------------------------------------------------||-| -------------------------------------------------------------||-| 6----3----5----6-5---3---5---6---8-6---5-----6-5-------------||-| -----------------------------------------8---------6---------||-| --00---00---00-----0---0---0---0-----0-----0-----0---333-111-| .. .. .. . . . . . . . ... ...
-ending played the final time
|-| --------------------------------||-| --------------------------------||-| --------------------------------||-| 8-6---5-------6-----------------||-| ----------8---------------------||-| ----0---0---0---333-111-555-111-| ... ... ... ...
//Repeat VERSE 2, then VERSE 3, Then TRANSITION till the song ends//
Please rate this tab:
x1.0