Heaven Shall Burn - Not My God tab

Band:Heaven Shall Burn
Song:The Dream is Dead
Album:Antigone
Tuning:Drop-C (DAFCGC)
Tabber:Brandon Wall (ze_carvingheadz@yahoo.com)
*This is a cover originally performed by Hate Squad.The double basing in the song makes 
sound harder than it is.*

Intro 1:|-|----------------------||-|----------------------||-|----------------------||-|--2--3---2--3---2-3---||-|--2--3---2--3---2-3---| X6|-|--2--3---2--3---2-3---|
Intro 2:
|-|-----------------------------------------||-|-----------------------------------------||-|-----------------------------------------||-|--2--3---2--3---2-3---5---6-5---3---2-3--||-|--2--3---2--3---2-3---5---6-5---3---2-3--| X4|-|--2--3---2--3---2-3---5---6-5---3---2-3--|
Verse1:|-|-----------------||-|-----------------||-|-----------------||-|-----------------||-|-00000000--5/6---| X8|-|-00000000--------|
Verse2:
|-|--------------------||-|--------------------||-|--------------------||-|-0--3-1--0--3-1--5--||-|-0--3-1--0--3-1--5--| X2|-|-0--3-1--0--3-1--5--|
Verse1 Verse2 Breakdown 1:
|-|---------------------||-|---------------------||-|---------------------||-|-232--232--232--356--||-|-232--232--232--356--||-|-232--232--232--356--| ... ...
Intro Chorus: Guitar 1//
|-|-------------||-|-------------||-|-------------||-|-2--5--0--3--| X2|-|-2--5--0--3--||-|-2--5--0--3--|
Guitar2//
|-|--------------------------------------||-|--------------------------------------||-|--------------------------------------||-|-9--12--14-7--10--12-9--12--14-7--10--||-|--------------------------------------||-|--------------------------------------|
Verse 1 Breakdown 2:
|-|---------------------------||-|---------------------------||-|---------------------------||-|---------------------------| X10|-|---------------------------||-|-0000000-0-1--0000000-1-0--|
Then one guitar plays that 2 more times while the other plays:
|-|---------------------------------||-|---------------------------------||-|---------------------------------||-|-12-13-12-13-13--14-15-14-15-15--| X2|-|---------------------------------||-|---------------------------------|
Then both guitars play:
|-|----------------------------------------------------------------------||-|----------------------------------------------------------------------||-|----------------------------------------------------------------------||-|-12-13-12-13-13--14-15-14-15-15--12-13-12-13-13--12-13-15-16-15-13-15-||-|----------------------------------------------------------------------||-|----------------------------------------------------------------------|
Verse 1 Verse 2 Breakdown 1 Intro 2 Chorus Verse 1 In the end where it keeps saying "my god, my god, my god, my god, yyour are not my god" guitar plays Verse 1 while the other plays//
|-|---|-|---|-|---|-|-0- X8|-|-0-|-|-0-
Tap to rate this tab
 
# A B C D E F G H I J K L M N O P Q R S T U V W X Y Z