Hedley - Johnny Falls tab

this is a song on guitar
cool                      D=down strum  U=up strum

intro/verse:

------------------------------------------------------------|------------------------------------------------------------|------------------------------------------------------------|------------------------------------------------------------|x2------------------------------------------------------------|-8-8-8-8-8-8-8-8---6-6-6-6-6-6---3-3-3-3-3-3---4-4-4-4-4-4--|
------------------------------------------------------------|------------------------------------------------------------|------------------------------------------------------------|-10-10-10-8--8-8-8-5--5-5-5-5--6-6-6-6----------------------|x2-10-10-10-8--8-8-8-5--5-5-5-5--6-6-6-6----------------------|--8--8--8-6--6-6-6-3--3-3-3-3--4-4-4-4----------------------| d d d u d d d u d d d u d d d u
chorus:
------------------------------------------------------------|------------------------------------------------------------|------------------------------------------------------------|10-10-10---x-x-8-8-8-8-8--10-10-10-10-10--6-6-6-6-6---------|10-10-10---x-x-8-8-8-8-8--10-10-10-10-10--6-6-6-6-6---------|-8--8--8---x-x-6-6-6-6-6---8--8--8--8--8--4-4-4-4-4---------|
d d d d u d d d u d d d d u d d d d u d------------------------------------------------------------|------------------------------------------------------------|------------------------------------------------------------|-10-10-10-10-10--8-8-8-8-8--5-5-5-5-5--6-6-6-6-6------------|-10-10-10-10-10--8-8-8-8-8--5-5-5-5-5--6-6-6-6-6------------|--8--8--8--8--8--6-6-6-6-6--3-3-3-3-3--4-4-4-4-4------------| d d d u d d d d u d d d d u d d d d u d
verse 2:
---------------------------------------------------------------|---------------------------------------------------------------|---------------------------------------------------------------|------------------------------------------------------------10-|------------------------------------------------------------10-|-8-8-8-8-8-8-8-8---6-6-6-6-6-6---3-3-3-3-3-3---4-4-4-4-4-4---8-|
------------------------------------------------------------|------------------------------------------------------------|------------------------------------------------------------|------------------------------------------------------------|------------------------------------------------------------|-8-8-8-8-8-8-8-8---6-6-6-6-6-6---3-3-3-3-3-3---4-4-4-4-4-4--|
------------------------------------------------------------|------------------------------------------------------------|------------------------------------------------------------|-10-10-10-8--8-8-8-5--5-5-5-5--6-6-6-6----------------------|x2-10-10-10-8--8-8-8-5--5-5-5-5--6-6-6-6----------------------|--8--8--8-6--6-6-6-3--3-3-3-3--4-4-4-4----------------------| d d d u d d d u d d d u d d d u
chorus:
---------------------------------------------------------------|---------------------------------------------------------------|---------------------------------------------------------------|10-10-10-10-10---8-8-8-8-8--10-10-10-10-10--6-6-6-6-6----------|10-10-10-10-10---8-8-8-8-8--10-10-10-10-10--6-6-6-6-6----------|-8--8--8--8--8---6-6-6-6-6---8--8--8--8--8--4-4-4-4-4----------|
d d d u d d d d u d d d d u d d d d u d------------------------------------------------------------|------------------------------------------------------------|------------------------------------------------------------|-10-10-10-10-10--8-8-8-8-8--5-5-5-5-5--6-6-6-6-6------------|-10-10-10-10-10--8-8-8-8-8--5-5-5-5-5--6-6-6-6-6------------|--8--8--8--8--8--6-6-6-6-6--3-3-3-3-3--4-4-4-4-4------------| d d d u d d d d u d d d d u d d d d u d
------------------------------------------------------------|------------------------------------------------------------|-8-8-8-8-8-----------------------------13-13-13--12-12-12---|-8-8-8-8-8--8-8-8-8-8--10-10-10-10-10--13-13-13--12-12-12---|-6-6-6-6-6--8-8-8-8-8--10-10-10-10-10--11-11-11--10-10-10---|------------6-6-6-6-6---8--8--8--8--8-----------------------|
----------------------------------------------------------------|----------------------------------------------------------------|-8-8-8-8-8-----------------------------13-13-13--0--0--0-15-15--|-8-8-8-8-8--8-8-8-8-8--10-10-10-10-10--13-13-13-13-13-13-13-13--|-6-6-6-6-6--8-8-8-8-8--10-10-10-10-10--11-11-11-11-11-11-11-11--|------------6-6-6-6-6---8--8--8--8--8---------------------------|
----------------------------------------------------------------|----------------------------------------------------------------|-8-7-8---8-7-8---8-7-8---8-12-12-10-10-8-8----------------------|-------8-------8-------8----------------------------------------|----------------------------------------------------------------|----------------------------------------------------------------|
----------------------------------------------------------------|----------------------------------------------------------------|8-7-8---8-7-8---8-7-8-10-10-strech that string alot-------------|-------8-------8------------------------------------------------|----------------------------------------------------------------|----------------------------------------------------------------|
------------------------------------------------------------------|------------------------------------------------------------------|------------------------------------------------------------------|---8---8---8---8---8---10---10---10---10---10---8---8---8---8---8-|-6---6---6---6---6---8----8----8----8----8----6---6---6---6---6---|------------------------------------------------------------------|
----------------------------------------------------------------------------|----------------------------------------------------------------------------|----------------------------------------------------------------------------|---8---8---8---8---8---10---10---10---10---10----12----12----12----12----12-|-6---6---6---6---6---8----8----8----8----8----10----10----10----10----10----|----------------------------------------------------------------------------|
----------------------------------------------------------------------------|----------------------------------------------------------------------------|----------------------------------------------------------------------------|---8---8---8---8---8---10---10---10---10---10----12----12----12----12----12-|-6---6---6---6---6---8----8----8----8----8----10----10----10----10----10----|----------------------------------------------------------------------------|
delay off----------------------------------------------------------------|-----------|----------------------------------------------------------------|-----------|----------------------------------------------------------------|12---1313--|---8---8---8---8---8---10---10---10---10---10----12----12----12-|12x5-1313--|-6---6---6---6---6---8----8----8----8----8----10----10----10----|10---1111--|----------------------------------------------------------------|-----------|
chorus:
---------------------------------------------------------------|---------------------------------------------------------------|---------------------------------------------------------------|10-10-10-10-10---8-8-8-8-8--10-10-10-10-10--6-6-6-6-6----------|10-10-10-10-10---8-8-8-8-8--10-10-10-10-10--6-6-6-6-6----------|-8--8--8--8--8---6-6-6-6-6---8--8--8--8--8--4-4-4-4-4----------|
d d d u d d d d u d d d d u d d d d u d------------------------------------------------------------|------------------------------------------------------------|------------------------------------------------------------|-10-10-10-10-10--8-8-8-8-8--5-5-5-5-5--6-6-6-6-6------------|-10-10-10-10-10--8-8-8-8-8--5-5-5-5-5--6-6-6-6-6------------|--8--8--8--8--8--6-6-6-6-6--3-3-3-3-3--4-4-4-4-4------------| d d d u d d d d u d d d d u d d d d u d
----------------------------------------------------------------|----------------------------------------------------------------|-8-7-8---8-7-8---8-7-8---8-12-12-10-10-8-8----------------------|-------8-------8-------8----------------------------------------|alot----------------------------------------------------------------|----------------------------------------------------------------|
----------------------------------------------------------------|----------------------------------------------------------------|8-7-8---8-7-8---8-7-8-10-10-strech that string alot-------------|-------8-------8------------------------------------------------|----------------------------------------------------------------|----------------------------------------------------------------|
all dun hope u like it
Tap to rate this tab
 
# A B C D E F G H I J K L M N O P Q R S T U V W X Y Z