Hellacopters - Electrocute tab

electrocute


the hellacopters


TRANSCRIBED BY RUDY GUZMAN


guzman_84@hotmail.com


Tuning: D# 
1 step down

:----------------------------|:----------------------------|:-2-4-2-4-2-4--2-2-4-2-4-2-4-|:-0-0-0-0-0-0--0-0-0-0-0-0-0-|:----------------------------|:----------------------------|
:------------------------------------------------------------|:------------------------------------------------------------|:------------------------------------------------------------|:-7-9-7-9-7-9--7-7-9-7-9-7-9--5-7-5-7--12-12-12--10----------|:-5-5-5-5-5-5--5-5-5-5-5-5-5--3-3-3-3--10-10-10--8------8----|:----------------------------------------------------10---10-|
:------------------------------------------------|:------------------------------------------------|:------------------------------------------------|:--7-7-9-7-9-7-9--5-7-5-7--12-12-12--10----------|:--5-5-5-5-5-5-5--3-3-3-3--10-10-10--8------8----|:----------------------------------------10---10-|
verse:------------------------------------------------|:------------------------------------------------|:------------------------------------------------|:--7-7-9-7-9-7-9--5-7-5-7--12-12-12--10----------|:--5-5-5-5-5-5-5--3-3-3-3--10-10-10--8------8----|:----------------------------------------10---10-|
:-------------------------|:-------------------------|:-------------------------|:-7-9-7-9-7-9-7--10-10-10-|:-5-5-5-5-5-5-5--8--8--8--|:-------------------------|
:-------------------------------------|:-------------------------------------|:-------------------------------------|:-7-9-7-9-7-9-7--12-12-12--10--7-10-7-|:-5-5-5-5-5-5-5--10-10-10--8---5-8--5-|:-------------------------------------|
piano:------------------------------------------------|:------------------------------------------------|:------------------------------------------------|:--7-7-9-7-9-7-9--5-7-5-7--12-12-12--10----------|:--5-5-5-5-5-5-5--3-3-3-3--10-10-10--8------8----|:----------------------------------------10---10-|
verse:------------------------------------------------|:------------------------------------------------|:------------------------------------------------|:--7-7-9-7-9-7-9--5-7-5-7--12-12-12--10----------|:--5-5-5-5-5-5-5--3-3-3-3--10-10-10--8------8----|:----------------------------------------10---10-|
:-------------------------|:-------------------------|:-------------------------|:-7-9-7-9-7-9-7--10-10-10-|:-5-5-5-5-5-5-5--8--8--8--|:-------------------------|
:-------------------------------------|:-------------------------------------|:-------------------------------------|:-7-9-7-9-7-9-7--12-12-12--10--7-10-7-|:-5-5-5-5-5-5-5--10-10-10--8---5-8--5-|:-------------------------------------|
:------------------------------------------------------------------------------------|:------------------------------------------------------------------------------------|:------------------------------------------------------------------------------------|:---------------------8------------------------------------------10------------------|:-8-8-----------------6-8------------------10-10-----------------8--10---------------|:-6-6-6-6-6-6-6-6-6-6---6-6-6-6-6-6-6-6-6--8--8--8-8-8-8-8-8-8-8----8--8-8-8-8-8-8-8-|
solo 1:----------------------------------------------------------------------------------------|:----------------------------------------------------------------------------------------|:-17b-17bf-17-14h16p14----14-----------14------------------------------------------------|:----------------------16-----16-14-16----14----------------14----14-16--16b-16b-16bfp14-|:--------------------------------------------16-14-16-16-16----16------------------------|:----------------------------------------------------------------------------------------|
:-------------------------------------------------------------------13-15-15bf-15p13-|:----------------------------------------------------------14b-14~~------------------|:---------------------17-----------17-----17-----17----17----------------------------|:-14-17-14--------16b----16-16-16b----16b----16b----16-------------------------------|:----------16-14---------------------------------------------------------------------|:------------------------------------------------------------------------------------|
---------:-15p13----------------12-14-12-15bf/-15-15-15-15ah-15b-13h15p13----13-13--13~~-|:-------14p12-14-14-14-------------------------------------------14-------------|:-------------------------------------------------------------------------------|:-------------------------------------------------------------------------------|:-------------------------------------------------------------------------------|:-------------------------------------------------------------------------------|
---------------------:--------------------/-----------------------------|:-------14----14-16b/-16-16-16-16-16-16-16--14~~~~-|:-13-15----15--------------------------------------|:--------------------------------------------------|:--------------------------------------------------|:--------------------------------------------------|
solo 2:---------------------------------------------------10-8-----------8b~~~-888888------|:----------------------------------------10b-10b~~~------10-8-7-----------------10p8-|:-9bf-9bp7---7-9b--9p7---9p7---9p7---9p7------------------------9--------------------|:----------9-----------9-----9-----9-------------------------------------------------|:------------------------------------------------------------------------------------|:------------------------------------------------------------------------------------|
:-888888------8----8---------13~~~-----13-14-15-15bf-13h14p13--------15p13-15p13---------|:--------10p8---10---10--13b-------/14------------------------14~~~--------------15p13-15|:----------------------------------------------------------------------------------------|:----------------------------------------------------------------------------------------|:----------------------------------------------------------------------------------------|:----------------------------------------------------------------------------------------|
-----------------------------------------:-15p13------17-----17-------------------------/----20-------20-------20--------20----20-|:--------20b----20b----20bfp17----------------/--20-------20-------20--------20----20----|:------------------------------19-17-19--19bf/---------19-------19--------19-------------|:----------------------------------------------------------------------------------------|:----------------------------------------------------------------------------------------|:----------------------------------------------------------------------------------------|
----------------------:----20----20----20------20bf--20b~~~~-----------------------|:-20----20----20-----20--------------------------------------|:------------------------------------------------------------|:------------------------------------------------------------|:------------------------------------------------------------|:------------------------------------------------------------|
x2:----------------------------------------|:----------------------------------------|:----------------------------------------|:-7/----10-7--5--7/--12-12-12-10--7-10-7-|:-5/----8--5--3--5/--10-10-10-8---5-8--5-|:----------------------------------------|
:-------------------------|:-------------------------|:-------------------------|:-7-9-7-9-7-9-7--10-10-10-|:-5-5-5-5-5-5-5--8--8--8--|:-------------------------|
:-------------------------------------|:-------------------------------------|:-------------------------------------|:-7-9-7-9-7-9-7--12-12-12--10--7-10-7-|:-5-5-5-5-5-5-5--10-10-10--8---5-8--5-|:-------------------------------------|
x2:----------------------|:----------------------|:----------------------|:-12-12-12--10--7-10-7-|:-10-10-10--8---5-8--5-|:----------------------|
:------------------------------------------------------------|:------------------------------------------------------------|:------------------------------------------------------------|:-7/---------------------------------------------------------|:-5/---------------------------------------------------------|:------------------------------------------------------------|
hillo son mex 23/02/10
Tap to rate this tab
 
# A B C D E F G H I J K L M N O P Q R S T U V W X Y Z