Helloween – The Departed tab

                       The Departed (sun is going down)

Tab By: KAD?R (BL?TZ)
Mail  : torture@2die4.com

Here with distortion use delay effects to gain that sound..E||-----------------------------|-----------------------------|B||-----------------------------|-----------------------------|G||-----------------------------|-----------------------------|D||----5---5-------5---5--------|----5---5-------5---5--------|A||-----------------------------|-----------------------------|E||--3---3---3-3-3---3---3------|--3---3---3-3-3---3---3------|
-----------------------------|-----------------------------|-----------------------------|-----------------------------|-----------------------------|-----------------------------|----5---5-------5---5--------|----5---5-------5---5--------|-----------------------------|-----------------------------|--3---3---3-3-3---3---3------|--3---3---3-3-3---3---3------|
-----------------------------|-----------------------------|-----------------------------|-----------------------------|-----------------------------|-----------------------------|----5---5-------5---5--------|----5---5-------5---5--------|-----------------------------|-----------------------------|--3---3---3-3-3---3---3------|--3---3---3-3-3---3---3------|
-----------------------------|-----------------------------|-----------------------------|-----------------------------|-----------------------------|-----------------------------|----5---5-------5---5--------|----5---5-------5---5--------|-----------------------------|-----------------------------|--3---3---3-3-3---3---3------|--3---3---3-3-3---3---3------|
-----------------------------|-----------------------------|-----------------------------|-----------------------------|-----------------------------|-----------------------------|----5---5-------5---5--------|----5---5-------5---5--------|-----------------------------|-----------------------------|--3---3---3-3-3---3---3------|--3---3---3-3-3---3---3------|
-----------------------------|-----------------------------|-----------------------------|-----------------------------|-----------------------------|-----------------------------|----5---5-------5---5--------|----5---5-------5---5--------|-----------------------------|-----------------------------|--3---3---3-3-3---3---3------|--3---3---3-3-3---3---3------|
-----------------------------|-----------------------------|-----------------------------|-----------------------------|-----------------------------|-----------------------------|----5---5-------5---5--------|----5---5-------5---5--------|-----------------------------|-----------------------------|--3---3---3-3-3---3---3------|--3---3---3-3-3---3---3------|
-----------------------------|-----------------------------|-------------------|-----------------------------|-----------------------------|-------------------|-----------------------------|-----------------------------|-------------------|----5---5-------5---5--------|----5---5-------5---5--------|--5----------------|-----------------------------|-----------------------------|--5----------------|--3---3---3-3-3---3---3------|--3---3---3-3-3---3---3------|--3----------------|
------------------|------------------|------------------|------------------|------------------|------------------|------------------|------------------|------------------|------------------|------------------|------------------|------------------|------------------|------------------|------------------|------------------|------------------|
-----------------------------|-----------------------------|-----------------------------|-----------------------------|-----------------------------|-----------------------------|----5---5-------5---5--------|----5---5-------5---5--------|-----------------------------|-----------------------------|--3---3---3-3-3---3---3------|--3---3---3-3-3---3---3------|
-----------------------------|-----------------------------|-----------------------------|-----------------------------|-----------------------------|-----------------------------|----5---5-------5---5--------|----5---5-------5---5--------|-----------------------------|-----------------------------|--3---3---3-3-3---3---3------|--3---3---3-3-3---3---3------|
P.M...............................................--------------------------|--------------------------|--------------------------|--------------------------|--------------------------|--------------------------|--5--5---5--5-5--5---5--5-|--5--5---5--5-5--5---5--5-|--5--5---5--5-5--5---5--5-|--5--5---5--5-5--5---5--5-|--3--3---3--3-3--3---3--3-|--3--3---3--3-3--3---3--3-|
P.M................................................--------------------------|--------------------------|--------------------------|--------------------------|--------------------------|--------------------------|--3--3---3--3-3--3---3--3-|--2--2---2--2-3--3---3--3-|--3--3---3--3-3--3---3--3-|--2--2---2--2-3--3---3--3-|--1--1---1--1-1--1---1--1-|--0--0---0--0-1--1---1--1-|
P.M..................................................--------------------------|--------------------------|--------------------------|--------------------------|--------------------------|--------------------------|--5--5---5--5-5--5---5--5-|--5--5---5--5-5--5---5--5-|--5--5---5--5-5--5---5--5-|--5--5---5--5-5--5---5--5-|--3--3---3--3-3--3---3--3-|--3--3---3--3-3--3---3--3-|
P.M..................................... E5--------------------------|------------------------|-------------------|--------------------------|------------------------|--5----------------|--------------------------|--------------3----5----|--4----------------|--3--3---3--3-3--3---3--3-|--3--3---3--3-3----5----|--2----------------|--3--3---3--3-3--3---3--3-|--3--3---3--3-1----3----|-------------------|--1--1---1--1-1--1---1--1-|--1--1---1--1-----------|-------------------|
D5 C5 A5 B5-------------------|-------------------|--------------------|--3----------------|-------------------|--------------------|--2----------------|--5----------------|--2--------4--------|--0----------------|--5----------------|--2--------4--------|-------------------|--3----------------|--0--------2--------|-------------------|-------------------|--------------------|
-------------------|-------------------|-------------------|--5----------------|--3----------------|-------------------|--4----------------|--2----------------|--5----------------|--2----------------|--0----------------|--5----------------|-------------------|-------------------|--3----------------|-------------------|-------------------|-------------------|
--------------------|-----------------------------|--------------------|-----------------------------|--2--------4--------|-----------------------------|--2--------4--------|----5---5-------5---5--------|--0--------2--------|-----------------------------|--------------------|--3---3---3-3-3---3---3------|
-----------------------------|-----------------------------|-----------------------------|-----------------------------|-----------------------------|-----------------------------|----5---5-------5---5--------|----5---5-------5---5--------|-----------------------------|-----------------------------|--3---3---3-3-3---3---3------|--3---3---3-3-3---3---3------|
-----------------------------|-----------------------------|-----------------------------|-----------------------------|-----------------------------|-----------------------------|----5---5-------5---5--------|----5---5-------5---5--------|-----------------------------|-----------------------------|--3---3---3-3-3---3---3------|--3---3---3-3-3---3---3------|
-----------------------------|-----------------------------|-----------------------------|-----------------------------|-----------------------------|-----------------------------|----5---5-------5---5--------|----5---5-------5---5--------|-----------------------------|-----------------------------|--3---3---3-3-3---3---3------|--3---3---3-3-3---3---3------|
-----------------------------|-----------------------------|-----------------------------|-----------------------------|-----------------------------|-----------------------------|----5---5-------5---5--------|----5---5-------5---5--------|-----------------------------|-----------------------------|--3---3---3-3-3---3---3------|--3---3---3-3-3---3---3------|
P.M.....................-----------------------------|--------------------------|-----------------------------|--------------------------|-----------------------------|--------------------------|----5---5-------5---5--------|--5--5---5--5-5--5---5--5-|-----------------------------|--5--5---5--5-5--5---5--5-|--3---3---3-3-3---3---3------|--3--3---3--3-3--3---3--3-|
...................................................................--------------------------|--------------------------|------------------------|--------------------------|--------------------------|------------------------|--------------------------|--------------------------|--------------3----5----|--5--5---5--5-5--5---5--5-|--3--3---3--3-3--3---3--3-|--3--3---3--3-3----5----|--5--5---5--5-5--5---5--5-|--3--3---3--3-3--3---3--3-|--3--3---3--3-1----3----|--3--3---3--3-3--3---3--3-|--1--1---1--1-1--1---1--1-|--1--1---1--1-----------|
-------------------|-------------------|-------------------|--5----------------|--3----------------|-------------------|--4----------------|--2----------------|--5----------------|--2----------------|--0----------------|--5----------------|-------------------|-------------------|--3----------------|-------------------|-------------------|-------------------|
--------------------|-------------------|-------------------|--------------------|--5----------------|--3----------------|--2--------4--------|--4----------------|--2----------------|--2--------4--------|--2----------------|--0----------------|--0--------2--------|-------------------|-------------------|--------------------|-------------------|-------------------|
-------------------|--------------------|-------------------|-------------------|--------------------|-------------------|--5----------------|--2--------4--------|--6----------------|--5----------------|--2--------4--------|--6----------------|--3----------------|--0--------2--------|--4----------------|-------------------|--------------------|-------------------|
-------------------|-------------------|--------------------|-------------------|-------------------|--------------------|--4----------------|--2----------------|--------------------|--4----------------|--2----------------|--4--------6--------|--2----------------|--0----------------|--4--------6--------|-------------------|-------------------|--2--------4--------|
-----------------------------|-----------------------------|-----------------------------|-----------------------------|-----------------------------|-----------------------------|----2---2-------2---2--------|----2---2-------2---2--------|-----------------------------|-----------------------------|--0---0---0-0-0---0---0------|--0---0---0-0-0---0---0------|
-----------------------------|-----------------------------|-----------------------------|-----------------------------|-----------------------------|-----------------------------|----2---2-------2---2--------|----2---2-------2---2--------|-----------------------------|-----------------------------|--0---0---0-0-0---0---0------|--0---0---0-0-0---0---0------|
P.M...............................................--------------------------|--------------------------|--------------------------|--------------------------|--------------------------|--------------------------|--5--5---5--5-5--5---5--5-|--5--5---5--5-5--5---5--5-|--5--5---5--5-5--5---5--5-|--5--5---5--5-5--5---5--5-|--3--3---3--3-3--3---3--3-|--3--3---3--3-3--3---3--3-|
.....................................................--------------------------|--------------------------|--------------------------|--------------------------|--------------------------|--------------------------|--3--3---3--3-3--3---3--3-|--2--2---2--2-3--3---3--3-|--3--3---3--3-3--3---3--3-|--2--2---2--2-3--3---3--3-|--1--1---1--1-1--1---1--1-|--0--0---0--0-1--1---1--1-|
...................................................--------------------------|--------------------------|--------------------------|--------------------------|--------------------------|--------------------------|--5--5---5--5-5--5---5--5-|--5--5---5--5-5--5---5--5-|--5--5---5--5-5--5---5--5-|--5--5---5--5-5--5---5--5-|--3--3---3--3-3--3---3--3-|--3--3---3--3-3--3---3--3-|
........................................--------------------------|------------------------|-------------------|--------------------------|------------------------|--5----------------|--------------------------|--------------3----5----|--4----------------|--3--3---3--3-3--3---3--3-|--3--3---3--3-3----5----|--2----------------|--3--3---3--3-3--3---3--3-|--3--3---3--3-1----3----|-------------------|--1--1---1--1-1--1---1--1-|--1--1---1--1-----------|-------------------|
-------------------|-------------------|--------------------|--3----------------|-------------------|--------------------|--2----------------|--5----------------|--2--------4--------|--0----------------|--5----------------|--2--------4--------|-------------------|--3----------------|--0--------2--------|-------------------|-------------------|--------------------|
-------------------|-------------------|-------------------|--5----------------|--3----------------|-------------------|--4----------------|--2----------------|--5----------------|--2----------------|--0----------------|--5----------------|-------------------|-------------------|--3----------------|-------------------|-------------------|-------------------|
--------------------|-------------------|-------------------|--------------------|-------------------|-------------------|--2--------4--------|--6----------------|--4----------------|--2--------4--------|--6----------------|--4----------------|--0--------2--------|--4----------------|--2----------------|--------------------|-------------------|-------------------|
-------------------|--------------------|-------------------|-------------------|--------------------|-------------------|--2----------------|--------------------|--6----------------|--2----------------|--4--------6--------|--6----------------|--0----------------|--4--------6--------|--4----------------|-------------------|--2--------4--------|-------------------|
-------------------|-------------------|--------------------|-------------------|-------------------|--------------------|--4----------------|--2----------------|--------------------|--4----------------|--2----------------|--4--------6--------|--2----------------|--0----------------|--4--------6--------|-------------------|-------------------|--2--------4--------|
-------------------|-------------------|-------------------|-------------------|-------------------|-------------------|--6----------------|--4----------------|--2----------------|--6----------------|--4----------------|--2----------------|--4----------------|--2----------------|--0----------------|-------------------|-------------------|-------------------|
--------------------|-------------------|-------------------|--------------------|-------------------|-------------------|--------------------|--6----------------|--4----------------|--4--------6--------|--6----------------|--4----------------|--4--------6--------|--4----------------|--2----------------|--2--------4--------|-------------------|-------------------|
-------------------|--------------------||-------------------|--------------------||--2----------------|--------------------||--2----------------|--4--------6--------||--0----------------|--4--------6--------||-------------------|--2--------4--------||
yes thats the main part of the song...that will enable you to play it.. Does anybody have the solo of "in the middle of a heartbeat"? Please post it to me if you have.. Stay in the dark ride...
Please rate this tab:
x1.0