Helloween - Warrior tab

#----------------------------------PLEASE NOTE---------------------------------#
#This file is the author's own work and represents their interpretation of the #
#song. You may only use this file for private study, scholarship, or research. #
#------------------------------------------------------------------------------#
#
Date: Sat, 20 Jan 1996 16:30:59 +0100
From: g9404781@student.anu.edu.au (SJG)
Subject: warrior.tab (warrior by helloween)

Warrior
by Helloween
>From Judas mini-LP

Transcribed by Stefan Gabriel
(g9404781@student.anu.edu.au)
Arranged and written by Helloween (1985)

Key
~ - vibrato

  Tempo : fast (one crotchet = 180).

Riff A|e|-------------------------------|-------------------------------||B|-------------------------------|-------------------------------||G|-------------------------------|-------------------------------||D|-9--------------------------7--|-9-----------------------------||A|-7--------------------------5--|-7-----------------------------||E|----0-0--0--0-0--0--0-0--0-----|----0-0--0--0-0--0--0-0--0--0--| P.M...................] P.M......................]
|------------------------|--------------------------|| |------------------------|--------------------------|| |------------------------|--------------------------|| |----------5-----------7-|--------------------------|| |-3-3-3-3--3--5-5-5-5--5-|-10-10-9-9-7-7-5-5--7~----|| |------------------------|-----------------------7~-|| P.M...] P.M...]
Fill 1 (each note represents 2 quavers e.g 12 means -12-12- etc)|------------------------|---------------||-*12-12-12-12-12-10-8-7-|-8-10-8-7------||------------------------|----------9~---||------------------------|------------9~-||------------------------|---------------||------------------------|---------------|
|-------------------|----------------| |-----------------7-|-8-7------------| |-------7-9-7-7-9---|-----9-7--9~----| |-10-10-------------|-------------9~-| |-------------------|----------------| |-------------------|----------------|
|------------------------|---------------| |-*12-12-12-12-12-10-8-7-|-8-10-8-7------| |------------------------|----------9~---| |------------------------|------------9~-| |------------------------|---------------| |------------------------|---------------|
| | | |-*10-10-10-10-10--8-7-5-|-7--8-7-5------| |------------------------|----------8~---| |------------------------|------------7~-| |------------------------|---------------| |------------------------|---------------| |------------------------|---------------|
|-------------------|--------------|| |-----------------7-|-8-7----------|| |-------7-9-7-7-9---|-----9-7--9~--|| |-10-10-------------|--------------|| |-------------------|--------------|| |-------------------|--------------||
| | || |-----------------5-|-7-5----------|| |--5--5-7-8-7-7-8---|-----8-7--8~--|| |-------------------|--------------|| |-------------------|--------------|| |-------------------|--------------|| |-------------------|--------------||
Riff B (2nd time play notes in parentheses.)|----------------------------------|---------------------------------||----------------------------------|---------------------------------||----------------------------------|---------------------------------||----------------------------------|---------------------------------||-4--------------------------------|-4-------------------------------||-2--2-2--2--2-2--2--2-2--2--2-(0)-|-2--2-2--2--2-2--2--2-2--2--2-(0)| P.M.........................] P.M.........................]
|-------------------------|------------------------------|| |-------------------------|------------------------------|| |-------------------------|------------------------------|| |----------7-----------9--|------------------------------|| |-5-5-5-5--5--7-7-7-7--7--|-4----------------------------|| |-------------------------|-2--2-2--2--2-2--2--2-2--2--0-|| P.M...] P.M...] P.M......................]
Riff C Half time feel: Play 3X|------------|---------------| |--------------------------------|----|||------------|---------------| |--------------------------------|----|||------------|---------------| |--------------------------------|----|||----------7-|---------------| |-6-------6-------6-------6------|--6-|||-5-5-5-5--5-|----------4----| |-4--4-4--4--4-4--4--4-4--4--4-4-|--4-|||------------|-2-2-2-2--2----| |--------------------------------|----|| P.M.....] P.M.....] P.M.] P.M.] P.M.] P.M.]
Riff D|----------------------------|------------------------------||----------------------------|------------------------------||----------------------------|------------------------------||----------------------------|-2----------------------------||-2--4-----------------------|-0--4-------------------------||-0--2--2--2-2--2--2-2--2--2-|----2--2--2-2--2--2-2--2--2-2-|
|----------------------------|-------------|-------| |----------------------------|-------------|-------| |----------------------------|-------------|-------| |----------------------------|-2--2--2--9--|--(9)--| |-2--4-----------------------|-0--0--0--7--|--(7)--| |-0--2--2--2-2--2--2-2--2--2-|-------------|-------|
|----------------------------|------------------------------| |----------------------------|------------------------------| |----------------------------|------------------------------| |----------------------------|-2----------------------------| |-2--4-----------------------|-0--4-------------------------| |-0--2--2--2-2--2--2-2--2--2-|----2--2--2-2--2--2-2--2--2-2-|
|----------------------------|-------------|-------|| |----------------------------|-------------|-------|| |----------------------------|-------------|-------|| |----------------------------|-6--6--6--6--|--(6)--|| |-2--4-----------------------|-4--4--4--4--|--(4)--|| |-0--2--2--2-2--2--2-2--2--2-|-------------|-------||
Riff E (each note here represent crotchet and 2 semiquavers) ( e.g 7 = -7--7-7- except for chord)|----------|----------|----------|----------||----------|----------|----------|----------||----------|----------|----------|----------||----------|-7--------|----------|-7--------||-7-7-9-10-|---10-9-5-|-7-7-9-10-|---10--10-||----------|----------|----------|-------8--|
|----------|----------|----------|----------|| |----------|----------|----------|-----*-*--|| |----------|----------|----------|-----9-8~-|| |----------|-7--------|----------|-7--10-9~-|| |-7-7-9-10-|---10-9-5-|-7-7-9-10-|----------|| |----------|----------|----------|----------|| * top notes denote Guitar 2
Riff F Play riff 4 times|--------------------------------|--------------------------------||--------------------------------|--------------------------------||--------------------------------|--------------------------------||-5------------------------------|--------------------------------||-3--3-3--3--3-3--3--3-3--3--3-3-|-3--3-3--3--3-3--3--3-3--3--3-3-||--------------------------------|--------------------------------| P.M.........................................................]
|--------------------------------|---------------------|| |--------------------------------|---------------------|| |--------------------------------|---------------------|| |-7------------------------------|---------------------|| |-5--5-5--5--5-5--5--5-5--5--5-5-|-10~--9~--7~--9~--5~-|| |--------------------------------|---------------------|| P.M........................]
Riff G Play riff 2 times|------------------------------|---|-------------------------------|---||------------------------------|---|-------------------------------|---||------------------------------|-%-|-------------------------------|-%-||9-----------------------------|---|-------------------------------|---||7--7-7--7--7-7--7--7-7--7--7-7|---|3--3-3--3--3-3--3--3-3--3--3-3-|---||------------------------------|---|-------------------------------|---| P.M..........................................................]
|--------------------------------|------------------|| |--------------------------------|------------------|| |--------------------------------|------------------|| |--------------------------------|------------------|| |-5--5-5--5--5-5--5--5-5--5--5-5-|--10--9--10-9-5-7-|| |--------------------------------|------------------|| P.M...........................]
Riff H|--------------------------------|-----|||--------------------------------|-----|||--------------------------------|--%--|||-9------------------------------|-----|||-7--7-7--7--7-7--7--7-7--7--7-7-|-----|||--------------------------------|-----|| P.M........................]
Riff I|-----------|-----------|-----|-------|-----------|||-----------|-----------|-----|-------|-----------|||-----------|-----------|-----|-------|-----------|||-6-6-6--6--|-4-4-4--4--|--2--|--(2)--|-----------|||-4-4-4--4--|-2-2-2--2--|--0--|--(0)--|-4-4-2--4--|||-----------|-----------|-----|-------|-2-2-0--2--||
Will post solo when worked out Song Structure Start - battle noise, Riff A (played twice), no band - only on accented beats Intro - Fill 1 with Riff A Verse 1 - Riff B Verse 2 - Riff C Intro Verse 3 - Riff B Verse 2 Chorus - Riff D Bridge 1 - Riff E Solo / with acc. Riff F, Riff G, then Riff D Bridge 2 - Riff E Intro Verse 4 - Riff B Verse 5 - Riff C Chorus (twice) Coda - Riff I Verse 1 Blackened sky a final flash Death is in the air Warriors without a face Destruction everywhere Verse 2 Silent falls the hammer No one hears the cries No escaping from this hell Your prayers won't be heard.....so die! Verse 3 Brainless cruel commanders Sending death and pain Soldiers only robots Fight for their lives in vain Chorus Die now..Die......Warrior Die now..Die......Warrior Bridge 1 Somewhere in a shelter sit the men who hold your fate in their hands Playin' chess and you're the loser you're a small pawn in their game Bridge 2 Somewhere in the shelter sit the men and they don't realise A war without survivors is a fight that's never won......so die! Verse 4 Barren land, desolate waste Destruction is complete Survivors creepin' through the ruins Decaying flesh and meat Verse 5 Somewhere in a shelter Some pigs are still alive And they still play the game They don't give a damn.....so Die!
Tap to rate this tab
 
# A B C D E F G H I J K L M N O P Q R S T U V W X Y Z