Hellyeah - Cowboy Way tab version 4

* palm mute
p pull off
h hammer on
/ slide




Main Riff-------------------]-------------------]-------------------]-------------------]-------------------]1p00000000000000---] ** **** ** **
Pre-Chorus-------------------]-------------------]5---555------------]5---5555---5--5----]3---3335---5--5----]-------5---5--5----]
-------------------]-------------------]7---777------------]7---7776---6--666--]5---5556---6--666--]-------6---6--666--]
Chorus-------------------]-------------------]---5/7\5-----------]0--5/7\53-3-6503---]0--3/5\33-3-6503---]0-------3-3-6503---]
-------------------]-------------------]---5/7\5-----------]0--5/7\53-3--------]0--3/5\33-3--------]0-------3-3-6~~~---]
-------------------]-------------------]---5/7\5-----------]0--5/7\53-3-6503---]0--3/5\33-3-6503---]0-------3-3-6503---]
-------------------]-------------------]-------------------]6666666666666666---]6666666666666666---]6666666666666666---]
Bridge-------------------]-------------------]-------------------]-------------------]-------------------]000-000-000-000-0000*** *** *** *** ****
Solo----------------------------------------]----------------------------------------]-----10h121p10~---10h12p10~-------------]12~~------------------------------------]----------------------------------------]----------------------------------------]
----------------------------------------]-13b15-13b15--16b17-16b17-16b17---------]----------------------------------------]----------------------------------------]----------------------------------------]----------------------------------------]
13h15-17p15p1317p15p1320p17p1520p17p15--]----------------------------------------]----------------------------------------]----------------------------------------]----------------------------------------]----------------------------------------]
----------------------------------------]20p18p16h18-10p18p16h18--20b22---r20p18-]----------------------------------------]----------------------------------------]----------------------------------------]----------------------------------------]
-----]-----]
-19~~]-----]-----]-----]
Tap to rate this tab
 
# A B C D E F G H I J K L M N O P Q R S T U V W X Y Z