Helmet - Gone tab

Helmet – Gone tabbed Kenny F

Drop C Tuning – CGCFAD

Intro

D|---------------------------------|A|---------------------------------|F|---------------------------------|C|-9-9-9-9-9-9-9-9-3-3-2-3-0-------| G|-9-9-9-9-9-9-9-9-3-3-2-3-0-------| C|-9-9-9-9-9-9-9-9-3-3-2-3-0-------|
Play this 3 times then:
|----------------||----------------||----------------||-0-0-0-0-0-0-2--| |-0-0-0-0-0-0-2--| |-0-0-0-0-0-0-2--|
Verse chords (h:hammer on)
|--------------------------------------------------------------||---------------------8----------------------------------------||---------------------7----------------------------------------||-0-2-0-2-0-2-0-2-3-5-6----0-2-0-2-0-2-0-2-0-2-3---------------| |-0-2-0-2-0-2-0-2-3-5-6----0-2-0-2-0-2-0-2-0-2-3---------------| |-0-2-0-2-0-2-0-2-3-5-6----0-2-0-2-0-2-0-2-0-2-3---------------|
|----------------------||---------------8------||---------------7------||-5-5-5-5-5-5-3-6------| |-5-5-5-5-5-5-3-6------| |-5-5-5-5-5-5-3-6------|
Pre-chorus bit
|-----------------||-3---------------||-2---------------||-0---2-3-0--2-3--| |-0---2-3-0--2-3--| |-0---2-3-0--2-3--|
Chorus chords
|---------------------------------||---------------------------------||---------------------------------||-9-9-9-9-9-9-9-9-3-3-2-3-0-------| |-9-9-9-9-9-9-9-9-3-3-2-3-0-------| |-9-9-9-9-9-9-9-9-3-3-2-3-0-------|
Play 3 times Followed by:
|--------------------||--------------------||--------------------||-0-0-0-0-0-0-2-3-0--| |-0-0-0-0-0-0-2-3-0--| |-0-0-0-0-0-0-2-3-0--|
Back to verse chords then into chorus chords again Bridge
|----------------||-5-3-----5---------||-5-2-----5---------||-3-0-1-2-3-----------| |-3-0-1-2-3-----------| |-3-0-1-2-3-----------|
Play this twice hold last chord then go into at 2:17:
|-------------------------------------------------------------------||-----------------------------------------------------------------7-||-----------------------------------------------------------------7-||-0-2b-0-2b-0-2b-0-2-3-0-2b-0-2b-0-2b-0-2-5-0-2b-0-2b-0-2b-0-2b-5-6- |-0-2b-0-2b-0-2b-0-2-3-0-2b-0-2b-0-2b-0-2-5-0-2b-0-2b-0-2b-0-2b-5-6-| |-0-2b-0-2b-0-2b-0-2-3-0-2b-0-2b-0-2b-0-2-5-0-2b-0-2b-0-2b-0-2b-5-6-|
Then at 2:37 play:
|-----------------||-------------8---||-------------7---||-5-5-5-5-5-3-6---| |-5-5-5-5-5-3-6---| |-5-5-5-5-5-3-6---|
Play 3 times then back chorus chords Outro chords
|----------------------||-------------------5--||-------------------4--||-0-0-0-0-0-0-2-2-2-3--| |-0-0-0-0-0-0-2-2-2-3--| |-0-0-0-0-0-0-2-2-2-3--|
Finish on
|------------||---------5--||---------4--||-0-2-0-2-3--| |-0-2-0-2-3--| |-0-2-0-2-3--|
That’s the end. Enjoy.
Tap to rate this tab
 
# A B C D E F G H I J K L M N O P Q R S T U V W X Y Z