Helmet - Fbla tab

-----------------------------------------------------------------------------
                              FBLA - Helmet
-----------------------------------------------------------------------------
Tabbed by an17nin17
e-mail - c.norman83@ntlworld.com

Tuning - D, A, D, G, B, E

Intro

|--------------||-0--0--0-0--0-||-0--0--0-0--0-||-3--3--3-3--3-||-3--3--3-3--3-||-3--3--3-3--3-| Play x 4
Verse 1
|-------------------||-------------------||-------------------||-0-0-0-0-2-0-0-003-||-0-0-0-0-2-0-0-003-||-0-0-0-0-2-0-0-003-| Play x 8
Chorus 1
|--------------||-0--0--0-0--0-||-0--0--0-0--0-||-3--3--3-3--3-||-3--3--3-3--3-||-3--3--3-3--3-| Play x 4
Verse 2 1,2,5| 3| 4||-------------------|-----|-----|---------||-------------------|-----|-19^-|---------||-------------------|-----|-18^-|---------||-0-0-0-0-2-0-0-003-|-----|-----|-x/x/x/x-||-0-0-0-0-2-0-0-003-|-----|-----|-x/x/x/x-||-0-0-0-0-2-0-0-003-|-----|-----|-x/x/x/x-|
Chorus 2
|---------------------------||-0--0--0-0--0-0--0--0-0--0-||-0--0--0-0--0-0--0--0-0--0-||-3--3--3-3--3-5--5--5-5--5-||-3--3--3-3--3-5--5--5-5--5-||-3--3--3-3--3-5--5--5-5--5-| Play x 5
Solo - Sorry, I don't know it, but if you do contact me and I will put it on here with your credit.
|-------------------------------------------------------||-0--0--0-0--0-0--0--0-0--0-0--0--0-0--0----------------||-0--0--0-0--0-0--0--0-0--0-0--0--0-0--0----------------||-3--3--3-3--3-5--5--5-5--5-1--1--1-1--1--0--3^-0-0-0-3-||-3--3--3-3--3-5--5--5-5--5-1--1--1-1--1--0--3^-0-0-0-3-||-3--3--3-3--3-5--5--5-5--5-1--1--1-1--1--0--3^-0-0-0-3-| Play x 3
Outro
|---------------|-------------------||---------------|-------------------||---------------|-------------------||-0--3^-0-0-0-3-|-0-0-0-0-2-0-0-003-||-0--3^-0-0-0-3-|-0-0-0-0-2-0-0-003-||-0--3^-0-0-0-3-|-0-0-0-0-2-0-0-003-| Play x 8 |
And Thats it.
Tap to rate this tab
 
# A B C D E F G H I J K L M N O P Q R S T U V W X Y Z