Helmet – Strap It On tab

-----------------------------------------------------------------------------
                       STRAP IT ON ALBUM - HELMET
-----------------------------------------------------------------------------

Note – I don’t think there is a tab book for this album, so I couldn't
of copied this out of one.

I would also like to point out that I did tab all these out and if you are going
to copy the tabs give me credit, thanks

All songs - © 1990 Page Nye Hamilton
All songs tabbed by an18nin18 (or an17nin17)
contact me at c.norman83@ntlworld.com if you have any comments about my tabs,
or want to submit any solo's seeing as they are really tough to work out.
I'll give you credit, if it's correct.

Track Listing

1 – Repetition
2 – Rude
3 – Bad Mood
4 – Sinatra
5 – FBLA
6 – Blacktop
7 – Distraction
8 – Make Room
9 - Murder

1 – Repetition

Drop D Tuning
 
Intro

|-----------|----------------||-0-0-0-0-0-|----------------||-0-0-0-0-0-|----------------||-5-5-5-5-5-|-5-5-2-0--0-0-2-||-5-5-5-5-5-|-5-5-2-0--0-0-2-||-5-5-5-5-5-|-5-5-2-0--0-0-2-| | Play x 12Verse
|-----------------------------------------||-----------------------------------------||-----------------------------------------||-0-2--2-2-0-2--2-2-0-2--2-2-0-2-xxxx-2-3-||-0-2--2-2-0-2--2-2-0-2--2-2-0-2-xxxx-2-3-||-0-2--2-2-0-2--2-2-0-2--2-2-0-2-xxxx-2-3-| Play x 6
Chorus
|----------------||----------------||----------------||-5-5-2-0--0-0-2-||-5-5-2-0--0-0-2-||-5-5-2-0--0-0-2-| Play x 8
|-----------------------------------------||-----------------------------------------||-----------------------------------------||-0-2--2-2-0-2--2-2-0-2--2-2-0-2-xxxx-2-3-||-0-2--2-2-0-2--2-2-0-2--2-2-0-2-xxxx-2-3-||-0-2--2-2-0-2--2-2-0-2--2-2-0-2-xxxx-2-3-| Play x 6
|----------------||----------------||----------------||-5-5-2-0--0-0-2-||-5-5-2-0--0-0-2-||-5-5-2-0--0-0-2-| Play x 8
Middle 8
|---------------------------------------------------|----||---------------------------------------------------|----||---------------------------------------------------|----||-0-10-12-12---0-10-12-12---0-10-12-12---0-10-12-12-|-14-||-0-10-12-12---0-10-12-12---0-10-12-12---0-10-12-12-|-14-||-0-10-12-12---0-10-12-12---0-10-12-12---0-10-12-12-|-14-| Play x 2 |
Solo
|-----------------------------------------||-----------------------------------------||-----------------------------------------||-0-2--2-2-0-2--2-2-0-2--2-2-0-2-xxxx-2-3-||-0-2--2-2-0-2--2-2-0-2--2-2-0-2-xxxx-2-3-||-0-2--2-2-0-2--2-2-0-2--2-2-0-2-xxxx-2-3-| Play x 6
Outro
|----------------|---------------||----------------|---------------||----------------|---------------||-5-5-2-0--0-0-2-|-10-12-0~~---0-||-5-5-2-0--0-0-2-|-10-12-0~~---0-||-5-5-2-0--0-0-2-|-10-12-0~~---0-| Play x 8 |
2 – Rude Drop D Tuning - D, A, D, G, B, E Intro
|-------------|-------------------------| |-------------|-------------------------| |-------------|-------------------------| |-5-5-5-5-5-5-|-5-5-5-5-5-5-5-5-5-5-5-5-| |-5-5-5-5-5-5-|-7-7-7-7-7-7-5-5-5-5-5-5-| |-5-5-5-5-5-5-|-5-5-5-5-5-5-5-5-5-5-5-5-| Play x 3 | Play x 6
Verse
|--------------------| |--------------------| |--------------------| |-0---0-0-0---0-0-3^-| |-0---0-0-0---0-0-3^-| |-0---0-0-0---0-0-3^-| Play x 16
Chorus
|----------------------|---------------------| |----------------------|-4-4-4-4-------------| |----------------------|-4-4-4-4-------------| |-/5-5-5-5-5-5-5-5-5-5-|-4-4-4-4-5-5-5-5-5-5-| |-/5-5-5-5-5-5-5-5-5-5-|-4-4-4-4-5-5-5-5-5-5-| |-/5-5-5-5-5-5-5-5-5-5-|-4-4-4-4-5-5-5-5-5-5-| Play x 2 | Play x 8
|--------------------| |--------------------| |--------------------| |-0---0-0-0---0-0-3^-| |-0---0-0-0---0-0-3^-| |-0---0-0-0---0-0-3^-| Play x 12
|----------------------|---------------------| |----------------------|-4-4-4-4-------------| |----------------------|-4-4-4-4-------------| |-/5-5-5-5-5-5-5-5-5-5-|-4-4-4-4-5-5-5-5-5-5-| |-/5-5-5-5-5-5-5-5-5-5-|-4-4-4-4-5-5-5-5-5-5-| |-/5-5-5-5-5-5-5-5-5-5-|-4-4-4-4-5-5-5-5-5-5-| Play x 2 | Play x 8
Solo
|---------------------------------|-------------------------------------||---------------------------------|-------------------------------------||---------------------------------|-------------------------------------||-3-3-3-3-3-3-3-3-0-0-0-0-0-0-0-0-|-6-6-6-6-6-6-6-6-6-6-6-6-6-6-6-6-3-3-||-3-3-3-3-3-3-3-3-0-0-0-0-0-0-0-0-|-6-6-6-6-6-6-6-6-6-6-6-6-6-6-6-6-3-3-||-3-3-3-3-3-3-3-3-0-0-0-0-0-0-0-0-|-6-6-6-6-6-6-6-6-6-6-6-6-6-6-6-6-3-3-| Play x 2 |
|------------------------------------------------| |------------------------------------------------| |------------------------------------------------| |-3-3-3-3-3-3-9-9-9-9-9-9-10-10-10-10-10p0--10p0-| |-3-3-3-3-3-3-9-9-9-9-9-9-10-10-10-10-10p0--10p0-| |-3-3-3-3-3-3-9-9-9-9-9-9-10-10-10-10-10p0--10p0-|
|--------------------| |--------------------| |--------------------| |-0---0-0-0---0-0-3^-| |-0---0-0-0---0-0-3^-| |-0---0-0-0---0-0-3^-| Play x 12
Outro
|-----------------------|-----||-0---0---0---0---0---0-|-----||-0---0---0---0---0---0-|-----||-5---5---5---5---5---5-|-5~~-||-5---5---5---5---5---5-|-5~~-||-5---5---5---5---5---5-|-5~~-| Play x 16 |
3 – Bad Mood Drop D Tuning - D, A, D, G, B, E Verse
|---------------| |---------------| |---------------| |-2-2-3-0-2-2-3-| |-2-2-3-0-2-2-3-| |-2-2-3-0-2-2-3-| Play x 16
Chorus
|-10-10-10-10-10-12-12-12-12-12-| |-8--8--8--8--8--10-10-10-10-10-| |-10-10-10-10-10-12-12-12-12-12-| |-//-//-//-//-//-//-//-//-//-//-| |-------------------------------| |-------------------------------| Play x 2
|---------------| |---------------| |---------------| |-2-2-3-0-2-2-3-| |-2-2-3-0-2-2-3-| |-2-2-3-0-2-2-3-| Play x 12
|-10-10-10-10-10-12-12-12-12-12-| |-8--8--8--8--8--10-10-10-10-10-| |-10-10-10-10-10-12-12-12-12-12-| |-//-//-//-//-//-//-//-//-//-//-| |-------------------------------| |-------------------------------| Play x 2
Solo
|-10-10-10-10-10-9-9-9-9-9-| |-8--8--8--8--8--7-7-7-7-7-| |-10-10-10-10-10-9-9-9-9-9-| |-//-//-//-//-//-/-/-/-/-/-| |--------------------------| |--------------------------| Play x 8
Outro
|---------------| |---------------| |---------------| |-2-2-3-0-2-2-3-| |-2-2-3-0-2-2-3-| |-2-2-3-0-2-2-3-| Play x 16
4 – Sinatra Drop D Tuning Intro
|--------|-3-3-3-3-3-3-3-3-3-3-3-3-3-3-3-3-||--------|-3-3-3-3-3-3-3-3-3-3-3-3-3-3-3-3-||--------|-0-0-0-0-0-0-0-0-0-0-0-0-0-0-0-0-||-<12>~~-|-0-0-0-0-0-0-0-0-0-0-0-0-0-0-0-0-||-<12>~~-|---------------------------------||-<12>~~-|---------------------------------| | Play x 2
Chorus
|---------------------------------3-||---------------------------------3-||---------------------------------0-||-1-1-0-x-x-1-0---0-1-1-0-x-x-1-0-0-||-1-1-0-x-x-1-0---0-1-1-0-x-x-1-0---||-1-1-0-x-x-1-0---0-1-1-0-x-x-1-0---| Play x 4
Post – Chorus
|-3-3-3-3-3-3-3-3-3-3-3-3-3-3-3-3-|-2-2-2-2-2-2-2-2-2-2-2-2-2-2-2-2-||-3-3-3-3-3-3-3-3-3-3-3-3-3-3-3-3-|-2-2-2-2-2-2-2-2-2-2-2-2-2-2-2-2-||-0-0-0-0-0-0-0-0-0-0-0-0-0-0-0-0-|-0-0-0-0-0-0-0-0-0-0-0-0-0-0-0-0-||-0-0-0-0-0-0-0-0-0-0-0-0-0-0-0-0-|-0-0-0-0-0-0-0-0-0-0-0-0-0-0-0-0-||---------------------------------|---------------------------------||---------------------------------|---------------------------------| Play x 2 | Play x 2
|-2-2-2-2-2-2-2-2-2-2-2-2-2-2-2-2-/18-18-18-18-18-18-18-18-18-18-18-||-2-2-2-2-2-2-2-2-2-2-2-2-2-2-2-2-/17-17-17-17-17-17-17-17-17-17-17-||-0-0-0-0-0-0-0-0-0-0-0-0-0-0-0-0--0--0--0--0--0--0--0--0--0--0--0--||-1-1-1-1-1-1-1-1-1-1-1-1-1-1-1-1--0--0--0--0--0--0--0--0--0--0--0--||-------------------------------------------------------------------||-------------------------------------------------------------------|
Middle 8
|-11111111-11-11111111-11-11111111-11-11111111-11-8-8-8-8--8--8-8-8-8-||-11111111-11-11111111-11-11111111-11-11111111-11-8-8-8-8--8--8-8-8-8-||-10101010-10-10101010-10-10101010-10-10101010-10-7-7-7-7--7--7-7-7-7-||-8-8-8-8--8--8-8-8-8--8--8-8-8-8--8--8-8-8-8--8--5-5-5-5--5--5-5-5-5-||-8-8-8-8--8--8-8-8-8--8--8-8-8-8--8--8-8-8-8--8--5-5-5-5--5--5-5-5-5-||-8-8-8-8--8--8-8-8-8--8--8-8-8-8--8--8-8-8-8--8--5-5-5-5--5--5-5-5-5-| Play x 3
|-8--8-8-8-8--8--8-8-8-8--8-|-3-3-3-3--3--3-3-3-3--4--4-4-4-4--4--4-4-4-4-||-8--8-8-8-8--8--8-8-8-8--8-|-3-3-3-3--3--3-3-3-3--4--4-4-4-4--4--4-4-4-4-||-7--7-7-7-7--7--7-7-7-7--7-|-2-2-2-2--2--2-2-2-2--3--3-3-3-3--3--3-3-3-3-||-5--5-5-5-5--5--5-5-5-5--5-|-0-0-0-0--0--0-0-0-0--1--1-1-1-1--1--1-1-1-1-||-5--5-5-5-5--5--5-5-5-5--5-|-0-0-0-0--0--0-0-0-0--1--1-1-1-1--1--1-1-1-1-||-5--5-5-5-5--5--5-5-5-5--5-|-0-0-0-0--0--0-0-0-0--1--1-1-1-1--1--1-1-1-1-| | Play x 4
|-3-3-3-3-3-3-3-3-3-3-3-3-3-3-3-3-||-3-3-3-3-3-3-3-3-3-3-3-3-3-3-3-3-||-0-0-0-0-0-0-0-0-0-0-0-0-0-0-0-0-||-0-0-0-0-0-0-0-0-0-0-0-0-0-0-0-0-||---------------------------------||---------------------------------| Play x 4
|---------------------------------3-||---------------------------------3-||---------------------------------0-||-1-1-0-x-x-1-0---0-1-1-0-x-x-1-0-0-||-1-1-0-x-x-1-0---0-1-1-0-x-x-1-0---||-1-1-0-x-x-1-0---0-1-1-0-x-x-1-0---| Play x 6
|-3-3-3-3-3-3-3-3-3-3-3-3-3-3-3-3-|-2-2-2-2-2-2-2-2-2-2-2-2-2-2-2-2-||-3-3-3-3-3-3-3-3-3-3-3-3-3-3-3-3-|-2-2-2-2-2-2-2-2-2-2-2-2-2-2-2-2-||-0-0-0-0-0-0-0-0-0-0-0-0-0-0-0-0-|-0-0-0-0-0-0-0-0-0-0-0-0-0-0-0-0-||-0-0-0-0-0-0-0-0-0-0-0-0-0-0-0-0-|-0-0-0-0-0-0-0-0-0-0-0-0-0-0-0-0-||---------------------------------|---------------------------------||---------------------------------|---------------------------------| Play x 2 | Play x 2
Outro
|-3-3-3-3-3-3-3-3-3-3-3-3-3-3-3-3-|-----||-3-3-3-3-3-3-3-3-3-3-3-3-3-3-3-3-|-----||-0-0-0-0-0-0-0-0-0-0-0-0-0-0-0-0-|-----||-0-0-0-0-0-0-0-0-0-0-0-0-0-0-0-0-|-0~~-||-5-5-5-5-5-5-5-5-5-5-5-5-5-5-5-5-|-0~~-||---------------------------------|-0~~-| Play x 6 |
5 – FBLA Tuning - D, A, D, G, B, E Intro
|---------------------------||-0--0--0-0--0-0--0--0-0--0-||-0--0--0-0--0-0--0--0-0--0-||-3--3--3-3--3-5--5--5-5--5-||-3--3--3-3--3-3--3--3-3--3-||-3--3--3-3--3-3--3--3-3--3-| Play x 2
Verse 1
|-------------------||-------------------||-------------------||-0-0-0-0-2-0-0-003-||-0-0-0-0-2-0-0-003-||-0-0-0-0-2-0-0-003-| Play x 8
Chorus 1
|---------------------------||-0--0--0-0--0-0--0--0-0--0-||-0--0--0-0--0-0--0--0-0--0-||-3--3--3-3--3-5--5--5-5--5-||-3--3--3-3--3-3--3--3-3--3-||-3--3--3-3--3-3--3--3-3--3-| Play x 2
Verse 2 1,2,5| 3| 4||-------------------|-----|-----|---------||-------------------|-----|-19^-|---------||-------------------|-----|-18^-|---------||-0-0-0-0-2-0-0-003-|-----|-----|-x/x/x/x-||-0-0-0-0-2-0-0-003-|-----|-----|-x/x/x/x-||-0-0-0-0-2-0-0-003-|-----|-----|-x/x/x/x-|
Chorus 2
|---------------------------||-0--0--0-0--0-0--0--0-0--0-||-0--0--0-0--0-0--0--0-0--0-||-3--3--3-3--3-5--5--5-5--5-||-3--3--3-3--3-5--5--5-5--5-||-3--3--3-3--3-5--5--5-5--5-| Play x 5
Solo - Sorry, I don't know it, but if you do contact me and I will put it on here with your credit.
|-------------------------------------------------------||-0--0--0-0--0-0--0--0-0--0-0--0--0-0--0----------------||-0--0--0-0--0-0--0--0-0--0-0--0--0-0--0----------------||-3--3--3-3--3-5--5--5-5--5-1--1--1-1--1--0--3^-0-0-0-3-||-3--3--3-3--3-5--5--5-5--5-1--1--1-1--1--0--3^-0-0-0-3-||-3--3--3-3--3-5--5--5-5--5-1--1--1-1--1--0--3^-0-0-0-3-| Play x 3
Outro
|---------------|-------------------||---------------|-------------------||---------------|-------------------||-0--3^-0-0-0-3-|-0-0-0-0-2-0-0-003-||-0--3^-0-0-0-3-|-0-0-0-0-2-0-0-003-||-0--3^-0-0-0-3-|-0-0-0-0-2-0-0-003-| Play x 8 |
6 – Blacktop Drop D Tuning Intro
|-------------||-------------||-------------||-2-x-x-2-x-x-||-2-x-x-2-x-x-||-2-x-x-2-x-x-| Play x 12
| 1,2,3,4,5,6| 7||--------------|---------|-----|-----||--------------|---------|-----|-----||--------------|---------|-----|-----||-3--3-0-3-4-3-|-0-3p0-3-|-4-3-|-4~~-||-3--3-0-3-4-3-|-0-3p0-3-|-4-3-|-4~~-||-3--3-0-3-4-3-|-0-3p0-3-|-4-3-|-4~~-|
| Verse
|-----------------------------------------------------------||-----------------------------------------------------------||-----------------------------------------------------------||-3--3-0-3-4-3--0-3p0-3-4-3--0-3p0-3-4-3--0-3p0-3-4-3-1~~-0-||-3--3-0-3-4-3--0-3p0-3-4-3--0-3p0-3-4-3--0-3p0-3-4-3-1~~-0-||-3--3-0-3-4-3--0-3p0-3-4-3--0-3p0-3-4-3--0-3p0-3-4-3-1~~-0-| Play x 4
Chorus
|-------------------------||-------------------------||-------------------------||-0-0-0-/7--3-3-0-3-4-5~~-||-0-0-0-/7--3-3-0-3-4-5~~-||-0-0-0-/7--3-3-0-3-4-5~~-| Play x 4
|-----------------------------------------------------------||-----------------------------------------------------------||-----------------------------------------------------------||-3--3-0-3-4-3--0-3p0-3-4-3--0-3p0-3-4-3--0-3p0-3-4-3-1~~-0-||-3--3-0-3-4-3--0-3p0-3-4-3--0-3p0-3-4-3--0-3p0-3-4-3-1~~-0-||-3--3-0-3-4-3--0-3p0-3-4-3--0-3p0-3-4-3--0-3p0-3-4-3-1~~-0-| Play x 4
1,2,3,4,5,6,7| 8||-------------|-------------|-----||-------------|-------------|-----||-------------|-------------|-----||-0-0-0-/7--3-|-3-0-3-4-5~~-|-3~~-||-0-0-0-/7--3-|-3-0-3-4-5~~-|-3~~-||-0-0-0-/7--3-|-3-0-3-4-5~~-|-3~~-|
Solo 1,2,3,4,5,6,7| 8||-----------------------|-------|---------------||-----------------------|-------|---------------||-----------------------|-------|---------------||-0--0-2-0-2-2-0--0-3-0-|-6-5-3-|-6-5-3-0-3-5-3-||-0--0-2-0-2-2-0--0-3-0-|-6-5-3-|-6-5-3-0-3-5-3-||-0--0-2-0-2-2-0--0-3-0-|-6-5-3-|-6-5-3-0-3-5-3-|
Middle 8
|-------------------------------------------|---------------------||-------------------------------------------|---------------------||-------------------------------------------|---------------------||-7--7--7-7-3--3--3-3-5--5--5-5-5-0-0-0-0-0-|-5-5-5-5-5-5-5-5-5-5-||-7--7--7-7-3--3--3-3-5--5--5-5-5-0-0-0-0-0-|-5-5-5-5-5-5-5-5-5-5-||-7--7--7-7-3--3--3-3-5--5--5-5-5-0-0-0-0-0-|-5-5-5-5-5-5-5-5-5-5-| Play x 3 | PM…………………………………………… Play x 4
Outro
|-------------------------|-----------------||-------------------------|-----------------||-------------------------|-----------------||-0-0-0-/7--3-3-0-3-4-5~~-|-6-5-3-0-3-5-3-0-||-0-0-0-/7--3-3-0-3-4-5~~-|-6-5-3-0-3-5-3-0-||-0-0-0-/7--3-3-0-3-4-5~~-|-6-5-3-0-3-5-3-0-| Play x 12* |
* After playing 6 times, guitar 2 enters
|-10^---------------------|-14^---------------------||-------------------------|-------------------------||-------------------------|-------------------------||-------------------------|-------------------------||-------------------------|-------------------------||-------------------------|-------------------------| Play x 3 | Play x 3
7 – Distracted Drop D Tuning Intro
|---------------------||---------------------||---------------------||-3-0-3-5-0-3-0-3-5-0-||-3-0-3-5-0-3-0-3-5-0-||-3-0-3-5-0-3-0-3-5-0-| Play x 8
Verse
|---------------------------|---------------------||---------------------------|---------------------||---------------------------|---------------------||-3--3-0-2-3-0-3--3-0-2-3-0-|-3-0-3-5-0-3-0-3-5-0-||-3--3-0-2-3-0-3--3-0-2-3-0-|-3-0-3-5-0-3-0-3-5-0-||-3--3-0-2-3-0-3--3-0-2-3-0-|-3-0-3-5-0-3-0-3-5-0-| Play x 8 | Play x 2
|---------------------------|---------------------||---------------------------|---------------------||---------------------------|---------------------||-3--3-0-2-3-0-3--3-0-2-3-0-|-3-0-3-5-0-3-0-3-5-0-||-3--3-0-2-3-0-3--3-0-2-3-0-|-3-0-3-5-0-3-0-3-5-0-||-3--3-0-2-3-0-3--3-0-2-3-0-|-3-0-3-5-0-3-0-3-5-0-| Play x 4 | Play x 2
Pre – Chorus
|---------------------||---------------------||---------------------||-3-0-3-0-3-0-3-3-0-0-||-3-0-3-0-3-0-3-3-0-0-||-3-0-3-0-3-0-3-3-0-0-|
Chorus
|---------------------------------||---------------------------------||---------------------------------||-6-5-0-3-0-3-5-0-0-6-5-0-3-5-0-3-||-6-5-0-3-0-3-5-0-0-6-5-0-3-5-0-3-||-6-5-0-3-0-3-5-0-0-6-5-0-3-5-0-3-| Play x 4
|---------------------------|---------------------||---------------------------|---------------------||---------------------------|---------------------||-3--3-0-2-3-0-3--3-0-2-3-0-|-3-0-3-5-0-3-0-3-5-0-||-3--3-0-2-3-0-3--3-0-2-3-0-|-3-0-3-5-0-3-0-3-5-0-||-3--3-0-2-3-0-3--3-0-2-3-0-|-3-0-3-5-0-3-0-3-5-0-| Play x 8 | Play x 2
|---------------------------|---------------------||---------------------------|---------------------||---------------------------|---------------------||-3--3-0-2-3-0-3--3-0-2-3-0-|-3-0-3-5-0-3-0-3-5-0-||-3--3-0-2-3-0-3--3-0-2-3-0-|-3-0-3-5-0-3-0-3-5-0-||-3--3-0-2-3-0-3--3-0-2-3-0-|-3-0-3-5-0-3-0-3-5-0-| Play x 8 | Play x 3
|---------------------------------||---------------------------------||---------------------------------||-6-5-0-3-0-3-5-0-0-6-5-0-3-5-0-3-||-6-5-0-3-0-3-5-0-0-6-5-0-3-5-0-3-||-6-5-0-3-0-3-5-0-0-6-5-0-3-5-0-3-| Play x 4
Middle 8
|---------------------------------------|---------||---------------------------------------|---------||---------------------------------------|---------||-6-0-5-6-0-6-0-5-6-0-6-0-5-6-0-6-0-5-6-|-6-6-6-6-||-6-0-5-6-0-6-0-5-6-0-6-0-5-6-0-6-0-5-6-|-6-6-6-6-||-6-0-5-6-0-6-0-5-6-0-6-0-5-6-0-6-0-5-6-|-6-6-6-6-| Play x 4 (PM first x 2) |
Solo
|---------------------------||---------------------------||---------------------------||-3--3-0-2-3-0-3--3-0-2-3-0-||-3--3-0-2-3-0-3--3-0-2-3-0-||-3--3-0-2-3-0-3--3-0-2-3-0-|
| Guitar 1|---------------------------||---------------------------||---------------------------||-6-0-5-6-5-6-0-6-0-5-6-5-6-||---------------------------||---------------------------| Guitar 2 Play x 4
Outro
|---------------------------------|---------||---------------------------------|---------||---------------------------------|---------||-6-5-0-3-0-3-5-0-0-6-5-0-3-5-0-3-|-5-3-0-3-||-6-5-0-3-0-3-5-0-0-6-5-0-3-5-0-3-|-5-3-0-3-||-6-5-0-3-0-3-5-0-0-6-5-0-3-5-0-3-|-5-3-0-3-| Play x 10 |
8 – Make Room Drop D Tuning Intro
|-------------------------------------||-------------------------------------||-------------------------------------||-3-3-3-3-3-3-3-3-3-3-3-3-3-3-3-3-3-3-||-3-3-3-3-3-3-3-3-3-3-3-3-3-3-3-3-3-3-||-3-3-3-3-3-3-3-3-3-3-3-3-3-3-3-3-3-3-| PM………………………………………………………
Verse
|----------------------------------------||----------------------------------------||----------------------------------------||-0-0-9-10--0-0-9-10--0-0-9-10--0-0-9-10-||-0-0-9-10--0-0-9-10--0-0-9-10--0-0-9-10-||-0-0-9-10--0-0-9-10--0-0-9-10--0-0-9-10-| Play x 4
Chorus
|------------------------------------||-------0--------0--------0--------0-||-------0--------0--------0--------0-||-0-0-2-3--0-0-2-3--0-0-2-3--0-0-2-5-||-0-0-2-3--0-0-2-3--0-0-2-3--0-0-2-5-||-0-0-2-3--0-0-2-3--0-0-2-3--0-0-2-5-| Play x 2
|----------------------------------------||----------------------------------------||----------------------------------------||-0-0-9-10--0-0-9-10--0-0-9-10--0-0-9-10-||-0-0-9-10--0-0-9-10--0-0-9-10--0-0-9-10-||-0-0-9-10--0-0-9-10--0-0-9-10--0-0-9-10-| Play x 4
|------------------------------------|-------------------||-------0--------0--------0--------0-|-------------------||-------0--------0--------0--------0-|-------------------||-0-0-2-3--0-0-2-3--0-0-2-3--0-0-2-5-|-7-7---7-7-7-7-7-7-||-0-0-2-3--0-0-2-3--0-0-2-3--0-0-2-5-|-7-7---7-7-7-7-7-7-||-0-0-2-3--0-0-2-3--0-0-2-3--0-0-2-5-|-7-7---7-7-7-7-7-7-| Play x 2 |
|----------------------------------------||----------------------------------------||----------------------------------------||-0-0-9-10--0-0-9-10--0-0-9-10--0-0-9-10-||-0-0-9-10--0-0-9-10--0-0-9-10--0-0-9-10-||-0-0-9-10--0-0-9-10--0-0-9-10--0-0-9-10-| Play x 4
|------------------------------------|-------------------------||-------0--------0--------0--------0-|-------------------------||-------0--------0--------0--------0-|-------------------------||-0-0-2-3--0-0-2-3--0-0-2-3--0-0-2-5-|-7-7---7-7-7---7-7-6-5-3-||-0-0-2-3--0-0-2-3--0-0-2-3--0-0-2-5-|-7-7---7-7-7---7-7-6-5-3-||-0-0-2-3--0-0-2-3--0-0-2-3--0-0-2-5-|-7-7---7-7-7---7-7-6-5-3-| Play x 2 |
Middle 8
|-------------------|-------------||-------------------|-------------||-------------------|-------------||-7-7-7-7-7-7-6-5-3-|-7-7-3-3-3-3-||-7-7-7-7-7-7-6-5-3-|-7-7-3-3-3-3-||-7-7-7-7-7-7-6-5-3-|-7-7-3-3-3-3-| Play x 3 |
Outro
|------------------------------------|------------|-----||-------0--------0--------0--------0-|------------|-----||-------0--------0--------0--------0-|------------|-----||-0-0-2-3--0-0-2-3--0-0-2-3--0-0-2-5-|-2-2-3-2--2-|-2~~-||-0-0-2-3--0-0-2-3--0-0-2-3--0-0-2-5-|-2-2-3-2--2-|-2~~-||-0-0-2-3--0-0-2-3--0-0-2-3--0-0-2-5-|-2-2-3-2--2-|-2~~-| Play x 12 | Play x 16 |
9 – Murder Drop D Tuning Intro
|-17-17-17-17-17-17-17-17-17-17-17-17-17-17-17-17-6-6-6-6-6-6-6-6-6-6-6-6-||-------------------------------------------------------------------------||-14-14-14-14-14-14-14-14-14-14-14-14-14-14-14-14-3-3-3-3-3-3-3-3-3-3-3-3-||-------------------------------------------------------------------------||-------------------------------------------------------------------------||-------------------------------------------------------------------------|
| Guitar 1|-------------------------------------------------------------------------||-------------------------------------------------------------------------||-------------------------------------------------------------------------||-------------------------------------------------------------------------||-1-1-1-1-1-1-1-1-1-1-1-1-1-1-1-1-1-1-1-1-1-1-1-1-1-1-1-1-1-1-1-1-1-1-1-1-||-1-1-1-1-1-1-1-1-1-1-1-1-1-1-1-1-1-1-1-1-1-1-1-1-1-1-1-1-1-1-1-1-1-1-1-1-| Guitar 2
|-6-6-6-6-6-6-6-6-6-6-6-6-6-6-||-----------------------------||-3-3-3-3-3-3-3-3-3-3-3-3-3-3-||-----------------------------||-----------------------------||-----------------------------|
| Guitar 1|-----------------------------||-----------------------------||-----------------------------||-----------------------------||-1-1-1-1-1-1-1-1-1-1-1-1-1-1-||-1-1-1-1-1-1-1-1-1-1-1-1-1-1-| Guitar 2
|-------------------------------------------------------------------------||-------------------------------------------------------------------------||-------------------------------------------------------------------------||-------------------------------------------------------------------------||-2-2-2-2-2-2-0-2-0-2-2-2-2-2-2-2-2-2-2-2-0-2-0-2-2-2-2-2-1-1-1-1-1-1-0-1-||-2-2-2-2-2-2-0-2-0-2-2-2-2-2-2-2-2-2-2-2-0-2-0-2-2-2-2-2-1-1-1-1-1-1-0-1-| Play x 2
|-----------------------------------------|-17-17-17-17-17-17-17-17-17-17-||-----------------------------------------|-------------------------------||-----------------------------------------|-------------------------------||-----------------------------------------|-------------------------------||-0-1-1-1-1-1-1-1-1-1-1-1-0-1-0-1-1-1-1-1-|-------------------------------||-0-1-1-1-1-1-1-1-1-1-1-1-0-1-0-1-1-1-1-1-|-------------------------------| | Play x 4
Verse
|-------------------------------------------------------------------------||-------------------------------------------------------------------------||-------------------------------------------------------------------------||-------------------------------------------------------------------------||-2-2-2-2-2-2-0-2-0-2-2-2-2-2-2-2-2-2-2-2-0-2-0-2-2-2-2-2-1-1-1-1-1-1-0-1-||-2-2-2-2-2-2-0-2-0-2-2-2-2-2-2-2-2-2-2-2-0-2-0-2-2-2-2-2-1-1-1-1-1-1-0-1-| Play x 4
|-----------------------------------------||-----------------------------------------||-----------------------------------------||-----------------------------------------||-0-1-1-1-1-1-1-1-1-1-1-1-0-1-0-1-1-1-1-1-||-0-1-1-1-1-1-1-1-1-1-1-1-0-1-0-1-1-1-1-1-|
Chorus
|----------------------||----------------------||----------------------||-0-0--7-7-0-0--7--7-0-||-0-0--7-7-0-0--7--7-0-||-0-0--7-7-0-0--7--7-0-| Play x 4
|-------------------------------------------------------------------------||-------------------------------------------------------------------------||-------------------------------------------------------------------------||-------------------------------------------------------------------------||-2-2-2-2-2-2-0-2-0-2-2-2-2-2-2-2-2-2-2-2-0-2-0-2-2-2-2-2-1-1-1-1-1-1-0-1-||-2-2-2-2-2-2-0-2-0-2-2-2-2-2-2-2-2-2-2-2-0-2-0-2-2-2-2-2-1-1-1-1-1-1-0-1-| Play x 4
|-----------------------------------------||-----------------------------------------||-----------------------------------------||-----------------------------------------||-0-1-1-1-1-1-1-1-1-1-1-1-0-1-0-1-1-1-1-1-||-0-1-1-1-1-1-1-1-1-1-1-1-0-1-0-1-1-1-1-1-|
|----------------------||----------------------||----------------------||-0-0--7-7-0-0--7--7-0-||-0-0--7-7-0-0--7--7-0-||-0-0--7-7-0-0--7--7-0-| Play x 4
Middle 8
|--------------------|-17-17-17-17-17-17-17-17-17-17-||--------------------|-------------------------------||--------------------|-------------------------------||-0---13---0---13-12-|-------------------------------||-0---13---0---13-12-|-------------------------------||-0---13---0---13-12-|-------------------------------| Play x 4 | Play x 4
|-------------------------------------------------------------------------||-------------------------------------------------------------------------||-------------------------------------------------------------------------||-------------------------------------------------------------------------||-2-2-2-2-2-2-0-2-0-2-2-2-2-2-2-2-2-2-2-2-0-2-0-2-2-2-2-2-1-1-1-1-1-1-0-1-||-2-2-2-2-2-2-0-2-0-2-2-2-2-2-2-2-2-2-2-2-0-2-0-2-2-2-2-2-1-1-1-1-1-1-0-1-| Play x 8
|-----------------------------------------||-----------------------------------------||-----------------------------------------||-----------------------------------------||-0-1-1-1-1-1-1-1-1-1-1-1-0-1-0-1-1-1-1-1-||-0-1-1-1-1-1-1-1-1-1-1-1-0-1-0-1-1-1-1-1-|
|----------------------|-----||----------------------|-----||----------------------|-----||-0-0--7-7-0-0--7--7-0-|-1~~-||-0-0--7-7-0-0--7--7-0-|-1~~-||-0-0--7-7-0-0--7--7-0-|-1~~-| Play x 8
And Thats it.
Please rate this tab:
x1.0