Helmet – Aftertaste tab

-----------------------------------------------------------------------------
                       AFTERTASTE ALBUM - HELMET
-----------------------------------------------------------------------------

Note – I don’t think there is a tab book for this album, so I can’t
be copying out of a tab book.  If YOU are thinking of copying this tab give me credit.

Songs 1,3,4,5,6,7,8,9,10,11 and 14 - © 1997 Page Nye Hamilton
Songs 2 and 12 - © 1997 Page Hamilton, Henry Bogdan and John Stanier

All songs tabbed by an18nin18 (or an17nin17)

E – mail – c.norman83@ntlworld.com

Track Listing

1 – Pure
2 – Renovation
3 – Exactly What You Wanted
4 – Like I Care
5 – Driving Nowhere
6 – Birth Defect
7 – Broadcast Emotion
8 – It’s Easy To Get Bored
9 – Diet Aftertaste
10- Harmless
11- (High) Visibility
12- Insatiable
13- Crisis King

Another note, on the Japanese version of “Aftertaste” there is an extra track,
“Complete” off the Johnny Mneumonic Soundtrack.  I’ve decided to tab that
out separately seeing as the rest of the world didn’t have it.

1 – Pure

Drop D Tuning – D, A, D, G, B, E

Intro

|------|-------------------------------||------|-------------------------------||-FADE-|-------------------------------||------|-4---4---4---4---4---4-4-4-0-0-||--IN--|-4---4---4---4---4---4-4-4-0-0-||------|-4---4---4---4---4---4-4-4-0-0-| | Play x 2
Verse
|------------------|------------------|------------------|--------------||------------------|------------------|------------------|--------------||------------------|------------------|------------------|--------------||-4---4---4-/7-0-0-|-4-4-4---4-/7-0-0-|-4---4---4-/7-0-0-|-4~~---/7-0-0-||-4---4---4-/7-0-0-|-4-4-4---4-/7-0-0-|-4---4---4-/7-0-0-|-4~~---/7-0-0-||-4---4---4-/7-0-0-|-4-4-4---4-/7-0-0-|-4---4---4-/7-0-0-|-4~~---/7-0-0-| Play x 11 | Play x 6 | Play x 12 | Play x 7
Chorus
|-----------------------------------------------------------------------||-----------------------------------------------------------------------||-----------------------------------------------------------------------||-11-11-11-11-11-11-11-11-11-11-11-11-11-11-9-9-9-9-9-9-9-9-9-9-9-9-9-9-||-11-11-11-11-11-11-11-11-11-11-11-11-11-11-9-9-9-9-9-9-9-9-9-9-9-9-9-9-||-11-11-11-11-11-11-11-11-11-11-11-11-11-11-9-9-9-9-9-9-9-9-9-9-9-9-9-9-| Play x 2
Middle 8 1||---------------------------------------|-----------------------------||---------------------------------------|-----------------------------||---------------------------------------|-----------------------------||-4~~-4-4-5---5-5-5-6-6-6-6-6-6-6-6-7~~-|-7-7-7-7-7-7-7-9-9-9-9-9-9-9-||-4~~-4-4-5---5-5-5-6-6-6-6-6-6-6-6-7~~-|-7-7-7-7-7-7-7-9-9-9-9-9-9-9-||-4~~-4-4-5---5-5-5-6-6-6-6-6-6-6-6-7~~-|-7-7-7-7-7-7-7-9-9-9-9-9-9-9-|
2||---------------|-----------------|-----||---------------|-----------------|-----||---------------|-----------------|-----||-7-7-2---2-2-3-|-0-0-0-2-2-2-2-3-|-4~~-||-7-7-2---2-2-3-|-0-0-0-2-2-2-2-3-|-4~~-||-7-7-2---2-2-3-|-0-0-0-2-2-2-2-3-|-4~~-| | Play x 3 |Outro
|------------------|-----||------------------|-----||------------------|-----||-4-4-4---4-/7-0-0-|-0~~-||-4-4-4---4-/7-0-0-|-0~~-||-4-4-4---4-/7-0-0-|-0~~-| Play x 12 |
2 – Renovation Drop D Tuning Intro/Verse
|------|---------------------|---------------|--------------------------| |-BASS-|---------------------|-0-------------|--------------------------| |------|---------------------|-0-------------|--------------------------| |-ONLY-|-5--3-0---3--5-5-3-0-|-0-5-3-0-3-5-0-|-5-5-3-0-3h5-0-5-5-3-0--3-| |------|-5--3-0---3--5-5-3-0-|---5-3-0-3-5-0-|-5-5-3-0-3h5-0-5-5-3-0--3-| |------|-5--3-0---3--5-5-3-0-|---5-3-0-3-5-0-|-5-5-3-0-3h5-0-5-5-3-0--3-| | Play x 5 | Play x 6 | Play x 4
Chorus 1,2,3| 4| |-----------------|--------------|-------------------------------------| |-----------------|--------------|-------------------------------------| |-----------------|--------------|-------------------------------------| |-5-5-3-0-3h5-0-2-|-2-2-3--3-3-5-|-0-2-0-3-3-3-0-2-0-3-3-3-0-2-0-3-3-3-| |-5-5-3-0-3h5-0-2-|-2-2-3--3-3-5-|-0-2-0-3-3-3-0-2-0-3-3-3-0-2-0-3-3-3-| |-5-5-3-0-3h5-0-2-|-2-2-3--3-3-5-|-0-2-0-3-3-3-0-2-0-3-3-3-0-2-0-3-3-3-| Play x 3
|--------------------------| |--------------------------| |--------------------------| |-5-5-3-0-3h5-0-5-5-3-0--3-| |-5-5-3-0-3h5-0-5-5-3-0--3-| |-5-5-3-0-3h5-0-5-5-3-0--3-| Play x 4
1,2,3| 4| |-----------------|--------------|-------------------------------------| |-----------------|--------------|-------------------------------------| |-----------------|--------------|-------------------------------------| |-5-5-3-0-3h5-0-2-|-2-2-3--3-3-5-|-0-2-0-3-3-3-0-2-0-3-3-3-0-2-0-3-3-3-| |-5-5-3-0-3h5-0-2-|-2-2-3--3-3-5-|-0-2-0-3-3-3-0-2-0-3-3-3-0-2-0-3-3-3-| |-5-5-3-0-3h5-0-2-|-2-2-3--3-3-5-|-0-2-0-3-3-3-0-2-0-3-3-3-0-2-0-3-3-3-| | Play x 3
Solo
|--------------|--------------|--------------| |--------------|--------------|--------------| |--------------|--------------|--------------| |-0-0--0-0-0-3-|-0-0--0-0-0-3-|-0-0--0-0-0-3-| |-0-0--0-0-0-3-|-0-0--0-0-0-3-|-0-0--0-0-0-3-| |-0-0--0-0-0-3-|-0-0--0-0-0-3-|-0-0--0-0-0-3-|
| Guitar 1 |--------------|--------------|--------------| |--------------|--------------|--------------| |-9^-7~~~~~~~~-|-9^-7-9~~~~~~-|-9^-7-5-4-5-/-| |--------------|--------------|--------------| |--------------|--------------|--------------| |--------------|--------------|--------------| Guitar 2
|----------------| |----------------| |----------------| |-5--5-3-0-3h5-0-| |-5--5-3-0-3h5-0-| |-5--5-3-0-3h5-0-| Play x 4
|----------------|----------------|----------------|----------------| |----------------|----------------|----------------|----------------| |----------------|----------------|----------------|----------------| |-5--5-3-0-3h5-0-|-5--5-3-0-3h5-0-|-5--5-3-0-3h5-0-|-5--5-3-0-3h5-0-| |-5--5-3-0-3h5-0-|-5--5-3-0-3h5-0-|-5--5-3-0-3h5-0-|-5--5-3-0-3h5-0-| |-5--5-3-0-3h5-0-|-5--5-3-0-3h5-0-|-5--5-3-0-3h5-0-|-5--5-3-0-3h5-0-|
| Guitar 1 |----------------|----------------|----------------|----------------| |----------------|----------------|----------------|----------------| |-16-16-16-16-16-|-16-16-16-16-16-|-16-16-16-16-16-|-16-16-16-16-16-| |-//-//-//-//-//-|-//-//-//-//-//-|-//-//-//-//-//-|-//-//-//-//-//-| |----------------|----------------|----------------|----------------| |----------------|----------------|----------------|----------------| Guitar 2
|----------------|----------------|----------------|----------------| |----------------|----------------|----------------|----------------| |----------------|----------------|----------------|----------------| |-5--5-3-0-3h5-0-|-5--5-3-0-3h5-0-|-5--5-3-0-3h5-0-|-5--5-3-0-3h5-0-| |-5--5-3-0-3h5-0-|-5--5-3-0-3h5-0-|-5--5-3-0-3h5-0-|-5--5-3-0-3h5-0-| |-5--5-3-0-3h5-0-|-5--5-3-0-3h5-0-|-5--5-3-0-3h5-0-|-5--5-3-0-3h5-0-|
| Guitar 1 |----------------|----------------|----------------|-19^-19^-19^-19-| |----------------|----------------|----------------|-//--//--//--//-| |-16-17-16-12-12-|-10-10-9-9--7-7-|-5-5--4-4--5--5-|----------------| |-//-//-//-//-//-|-//-//-/-/--/-/-|-/-/--/-/--/--/-|----------------| |----------------|----------------|----------------|----------------| |----------------|----------------|----------------|----------------| Guitar 2
|----------------|----------------|----------------|----------------| |----------------|----------------|----------------|----------------| |----------------|----------------|----------------|----------------| |-5--5-3-0-3h5-0-|-5--5-3-0-3h5-0-|-5--5-3-0-3h5-0-|-5--5-3-0-3h5-0-| |-5--5-3-0-3h5-0-|-5--5-3-0-3h5-0-|-5--5-3-0-3h5-0-|-5--5-3-0-3h5-0-| |-5--5-3-0-3h5-0-|-5--5-3-0-3h5-0-|-5--5-3-0-3h5-0-|-5--5-3-0-3h5-0-|
| Guitar 1 |-19^-19^-19^-19-|-19^-19^-19^-19-|-19^-19^-19^-19-|-19-19-19-19-19-| |-//--//--//--//-|-//--//--//--//-|-//--//--//--//-|-//-//-//-//-//-| |----------------|----------------|----------------|----------------| |----------------|----------------|----------------|----------------| |----------------|----------------|----------------|----------------| |----------------|----------------|----------------|----------------| Guitar 2
1,2,3| 4| |-----------------|--------------|-------------------------------------| |-----------------|--------------|-------------------------------------| |-----------------|--------------|-------------------------------------| |-5-5-3-0-3h5-0-2-|-2-2-3--3-3-5-|-0-2-0-3-3-3-0-2-0-3-3-3-0-2-0-3-3-3-| |-5-5-3-0-3h5-0-2-|-2-2-3--3-3-5-|-0-2-0-3-3-3-0-2-0-3-3-3-0-2-0-3-3-3-| |-5-5-3-0-3h5-0-2-|-2-2-3--3-3-5-|-0-2-0-3-3-3-0-2-0-3-3-3-0-2-0-3-3-3-| | Play x 3
Outro 1,2,3| 4| |-----------------|--------------|-------------|---------------| |-----------------|--------------|-------------|-0-------------| |-----------------|--------------|-------------|-0-------------| |-5-5-3-0-3h5-0-2-|-2-2-3--3-3-5-|-0-2-0-3-3-3-|-0-0-2-0-3-3-3-| |-5-5-3-0-3h5-0-2-|-2-2-3--3-3-5-|-0-2-0-3-3-3-|---0-2-0-3-3-3-| |-5-5-3-0-3h5-0-2-|-2-2-3--3-3-5-|-0-2-0-3-3-3-|---0-2-0-3-3-3-| | Play x 3 | Play x 7
3 – Exactly What You Wanted Drop D Tuning Verse
|------------------|------------------------| |--------7-9-9-7-7-|------------------------| |--------7-9-9-7-7-|------------------------| |-9---9------------|-9---9--9-9-9--9-9--9-9-| |-9---9------------|-9---9--9-9-9--9-9--9-9-| |-9---9------------|-9---9--9-9-9--9-9--9-9-| Play x 3 |
Chorus 1| 2||-------------------------------------------|-----------|-----------||-------------------------------------------|-----------|-----------||-------------------------------------------|-----------|-----------||-4--4-4-4--4-4-4--4-7-4-7--4--4-4-4--4-4-4-|-7-4-7-4-7-|-7-7-7-7-7-||-4--4-4-4--4-4-4--4-7-4-7--4--4-4-4--4-4-4-|-7-4-7-4-7-|-7-7-7-7-7-||-4--4-4-4--4-4-4--4-7-4-7--4--4-4-4--4-4-4-|-7-4-7-4-7-|-7-7-7-7-7-|
| Guitar 1|-2--2-2-0--0--2-2-2-2--0--0--2-2-2--2--2-2-2-2--0--0-||-2--2-2-0--0--2-2-2-2--0--0--2-2-2--2--2-2-2-2--0--0-||-3--3-3-3--3--3-3-3-3--3--3--3-3-3--3--3-3-3-3--3--3-||-3--3-3-3--3--3-3-3-3--3--3--3-3-3--3--3-3-3-3--3--3-||-----------------------------------------------------||-----------------------------------------------------| Guitar 2 Play x 4
Post – Chorus
|----------------------------||----------------------------||----------------------------||-9----0-0--0--0-0-0-2-3--/9-||-9----0-0--0--0-0-0-2-3--/9-||-9----0-0--0--0-0-0-2-3--/9-| PM……………………………………… Play x 2
|------------------|------------------------| |--------7-9-9-7-7-|------------------------| |--------7-9-9-7-7-|------------------------| |-9---9------------|-9---9--9-9-9--9-9--9-9-| |-9---9------------|-9---9--9-9-9--9-9--9-9-| |-9---9------------|-9---9--9-9-9--9-9--9-9-|
| Guitar 1 ||-1111111111111111-|-1111111111111111111111-||-121212120-0-0-0--|-1212121212121212121212-||------------------|------------------------||------------------|------------------------||------------------|------------------------||------------------|------------------------| Guitar 2 | Play x 3 |
1| 2||-------------------------------------------|-----------|-----------||-------------------------------------------|-----------|-----------||-------------------------------------------|-----------|-----------||-4--4-4-4--4-4-4--4-7-4-7--4--4-4-4--4-4-4-|-7-4-7-4-7-|-7-7-7-7-7-||-4--4-4-4--4-4-4--4-7-4-7--4--4-4-4--4-4-4-|-7-4-7-4-7-|-7-7-7-7-7-||-4--4-4-4--4-4-4--4-7-4-7--4--4-4-4--4-4-4-|-7-4-7-4-7-|-7-7-7-7-7-|
| Guitar 1|-2--2-2-0--0--2-2-2-2--0--0--2-2-2--2--2-2-2-2--0--0-||-2--2-2-0--0--2-2-2-2--0--0--2-2-2--2--2-2-2-2--0--0-||-3--3-3-3--3--3-3-3-3--3--3--3-3-3--3--3-3-3-3--3--3-||-3--3-3-3--3--3-3-3-3--3--3--3-3-3--3--3-3-3-3--3--3-||-----------------------------------------------------||-----------------------------------------------------| Guitar 2 Play x 4
Verse
|----------------------------------------------||----------------------------------------------||----------------------------------------------||-9-9-7--0-2---2-2---/9-9-7--0--2--0---3-2-0-2-||-9-9-7--0-2---2-2---/9-9-7--0--2--0---3-2-0-2-||-9-9-7--0-2---2-2---/9-9-7--0--2--0---3-2-0-2-| Play x 3
|----------------------------------------------------| |----------------------------------------------------| |----------------------------------------------------||-2-2-2-3-2-0-2---2-2-2-3-2-0-2---2-2-2-3-2-0-2-0--0-| |-2-2-2-3-2-0-2---2-2-2-3-2-0-2---2-2-2-3-2-0-2-0--0-||-2-2-2-3-2-0-2---2-2-2-3-2-0-2---2-2-2-3-2-0-2-0--0-| Play x 3
1| 2||-------------------------------------------|-----------|-----------||-------------------------------------------|-----------|-----------||-------------------------------------------|-----------|-----------||-4--4-4-4--4-4-4--4-7-4-7--4--4-4-4--4-4-4-|-7-4-7-4-7-|-7-7-7-7-7-||-4--4-4-4--4-4-4--4-7-4-7--4--4-4-4--4-4-4-|-7-4-7-4-7-|-7-7-7-7-7-||-4--4-4-4--4-4-4--4-7-4-7--4--4-4-4--4-4-4-|-7-4-7-4-7-|-7-7-7-7-7-|
| Guitar 1|-2--2-2-0--0--2-2-2-2--0--0--2-2-2--2--2-2-2-2--0--0-||-2--2-2-0--0--2-2-2-2--0--0--2-2-2--2--2-2-2-2--0--0-||-3--3-3-3--3--3-3-3-3--3--3--3-3-3--3--3-3-3-3--3--3-||-3--3-3-3--3--3-3-3-3--3--3--3-3-3--3--3-3-3-3--3--3-||-----------------------------------------------------||-----------------------------------------------------| Guitar 2 Play x 4
Outro
|----------------------------------------------||----------------------------------------------||----------------------------------------------||-9-9-7--0-2---2-2---/9-9-7--0--2--0---3-2-0-2-||-9-9-7--0-2---2-2---/9-9-7--0--2--0---3-2-0-2-||-9-9-7--0-2---2-2---/9-9-7--0--2--0---3-2-0-2-| Play x 3
|----------------------------------------------------| |----------------------------------------------------| |----------------------------------------------------||-2-2-2-3-2-0-2---2-2-2-3-2-0-2---2-2-2-3-2-0-2-0--0-| |-2-2-2-3-2-0-2---2-2-2-3-2-0-2---2-2-2-3-2-0-2-0--0-||-2-2-2-3-2-0-2---2-2-2-3-2-0-2---2-2-2-3-2-0-2-0--0-| Play x 3
4 – Like I Care Drop D Tuning Intro
|------|---------------||-BASS-|---------------||------|---------------||------|-<4>~~---7-5~~-||-ONLY-|-<4>~~---------||------|-<4>~~---------| | ^ Feed - backed notes
Verse
|-----------------------------||-----------------------------||-----------------------------||-5-0-3-5-0-5-0-0-5-0-3-5-0-5-||-5-0-3-5-0-5-0-0-5-0-3-5-0-5-||-5-0-3-5-0-5-0-0-5-0-3-5-0-5-| Play x 8
Chorus
|-----------------------------------------------------------------------||-111111111111111111111111111113-13-13-13-8-8-8-8-8-8-8-8-8-8-8-8-8-8---||-101010101010101010101010101012-12-12-12-7-7-7-7-7-7-7-7-7-7-7-7-7-7---||-8-8-8-8-8-8-8-8-8-8-8-8-8-8-10-10-10-10-5-5-5-5-5-5-5-5-5-5-5-5-5-5-0-||-8-8-8-8-8-8-8-8-8-8-8-8-8-8-10-10-10-10-5-5-5-5-5-5-5-5-5-5-5-5-5-5-0-||-8-8-8-8-8-8-8-8-8-8-8-8-8-8-10-10-10-10-5-5-5-5-5-5-5-5-5-5-5-5-5-5-0-| Play x 4
Solo
|-----------------------------||-----------------------------||-----------------------------||-5-0-3-5-0-5-0-0-5-0-3-5-0-5-||-5-0-3-5-0-5-0-0-5-0-3-5-0-5-||-5-0-3-5-0-5-0-0-5-0-3-5-0-5-| Play x 9
|-----------------------|----------------------13^-||-----------------------|--------------------------||-5~~---7^-p5-4---0-----|--------------------------||-------------------3~~-|-3~~----------0~~---------||-----------------------|--------------0~~---------||-----------------------|-------/3-/2-/0~~---------| Guitar 2
|----------------------------|--------------------22p20-19~~-15-13~~-||----------------------------|----------------/----------------------||-17~~---19-p17-16---12-10~~-|-10h12~~--------/----------------------||----------------------------|---------------------------------------||----------------------------|---------------------------------------||----------------------------|---------------------------------------|
Outro
|-----------------------------------------------------------------------||-111111111111111111111111111113-13-13-13-8-8-8-8-8-8-8-8-8-8-8-8-8-8---||-101010101010101010101010101012-12-12-12-7-7-7-7-7-7-7-7-7-7-7-7-7-7---||-8-8-8-8-8-8-8-8-8-8-8-8-8-8-10-10-10-10-5-5-5-5-5-5-5-5-5-5-5-5-5-5-0-||-8-8-8-8-8-8-8-8-8-8-8-8-8-8-10-10-10-10-5-5-5-5-5-5-5-5-5-5-5-5-5-5-0-||-8-8-8-8-8-8-8-8-8-8-8-8-8-8-10-10-10-10-5-5-5-5-5-5-5-5-5-5-5-5-5-5-0-|
Play x 4|---------||-6-6-6-6-||-5-5-5-5-||-3-3-3-3-||-3-3-3-3-||-3-3-3-3-|
|-----------------------------------------------------------------------||-111111111111111111111111111113-13-13-13-8-8-8-8-8-8-8-8-8-8-8-8-8-8---||-101010101010101010101010101012-12-12-12-7-7-7-7-7-7-7-7-7-7-7-7-7-7---||-8-8-8-8-8-8-8-8-8-8-8-8-8-8-10-10-10-10-5-5-5-5-5-5-5-5-5-5-5-5-5-5-0-||-8-8-8-8-8-8-8-8-8-8-8-8-8-8-10-10-10-10-5-5-5-5-5-5-5-5-5-5-5-5-5-5-0-||-8-8-8-8-8-8-8-8-8-8-8-8-8-8-10-10-10-10-5-5-5-5-5-5-5-5-5-5-5-5-5-5-0-| Play x 6
|-----||-6~~-||-5~~-||-3~~-||-3~~-||-3~~-|
5 – Driving Nowhere Drop D Tuning Intro/Verse
|---------------------------------||-----<12><12>-------<12><12><12>-||-----<12><12>-------<12><12><12>-||-9-9----------9-x-9--------------||-9-9----------9-x-9--------------||-9-9----------9-x-9--------------| Play x 16
Chorus
|-----------------------------------------------------------------||-8-8-8-8-8-8-8-8-8-8-8-8-8-8-8-8---------------------------------||-7-7-7-7-7-7-7-7-7-7-7-7-7-7-7-7---------------------------------||-5-5-5-5-5-5-5-5-5-5-5-5-5-5-5-5-0-0-0-0-0-0-0-0-2-2-2-2-2-2-2-2-||-5-5-5-5-5-5-5-5-5-5-5-5-5-5-5-5-0-0-0-0-0-0-0-0-2-2-2-2-2-2-2-2-||-5-5-5-5-5-5-5-5-5-5-5-5-5-5-5-5-0-0-0-0-0-0-0-0-2-2-2-2-2-2-2-2-|
|---------------------------------||-8-8-8-8-8-8-8-8-----------------||-7-7-7-7-7-7-7-7-----------------||-5-5-5-5-5-5-5-5-0-0-0-0-2-2-2-2-||-5-5-5-5-5-5-5-5-0-0-0-0-2-2-2-2-||-5-5-5-5-5-5-5-5-0-0-0-0-2-2-2-2-|
|---------------------------------||-----<12><12>-------<12><12><12>-||-----<12><12>-------<12><12><12>-||-9-9----------9-x-9--------------||-9-9----------9-x-9--------------||-9-9----------9-x-9--------------| Play x 12
|-----------------------------------------------------------------||-8-8-8-8-8-8-8-8-8-8-8-8-8-8-8-8---------------------------------||-7-7-7-7-7-7-7-7-7-7-7-7-7-7-7-7---------------------------------||-5-5-5-5-5-5-5-5-5-5-5-5-5-5-5-5-0-0-0-0-0-0-0-0-2-2-2-2-2-2-2-2-||-5-5-5-5-5-5-5-5-5-5-5-5-5-5-5-5-0-0-0-0-0-0-0-0-2-2-2-2-2-2-2-2-||-5-5-5-5-5-5-5-5-5-5-5-5-5-5-5-5-0-0-0-0-0-0-0-0-2-2-2-2-2-2-2-2-|
|---------------------------------||-8-8-8-8-8-8-8-8-----------------||-7-7-7-7-7-7-7-7-----------------||-5-5-5-5-5-5-5-5-0-0-0-0-2-2-2-2-||-5-5-5-5-5-5-5-5-0-0-0-0-2-2-2-2-||-5-5-5-5-5-5-5-5-0-0-0-0-2-2-2-2-|
Middle 8
|---------------------||---------------------||---------------------||-7-9-9-9-0-2-x-5-4-0-||-7-9-9-9-0-2-x-5-4-0-||-7-9-9-9-0-2-x-5-4-0-|
Play x 12|-----------------------------------------------------------------||-8-8-8-8-8-8-8-8-8-8-8-8-8-8-8-8---------------------------------||-7-7-7-7-7-7-7-7-7-7-7-7-7-7-7-7---------------------------------||-5-5-5-5-5-5-5-5-5-5-5-5-5-5-5-5-0-0-0-0-0-0-0-0-2-2-2-2-2-2-2-2-||-5-5-5-5-5-5-5-5-5-5-5-5-5-5-5-5-0-0-0-0-0-0-0-0-2-2-2-2-2-2-2-2-||-5-5-5-5-5-5-5-5-5-5-5-5-5-5-5-5-0-0-0-0-0-0-0-0-2-2-2-2-2-2-2-2-|
|---------------------------------|-------------------------------||-8-8-8-8-8-8-8-8-----------------|-121212121212121212121212121212||-7-7-7-7-7-7-7-7-----------------|-111111111111111111111111111111||-5-5-5-5-5-5-5-5-0-0-0-0-2-2-2-2-|-9-9-9-9-9-9-9-9-9-9-9-9-9-9-9-||-5-5-5-5-5-5-5-5-0-0-0-0-2-2-2-2-|-9-9-9-9-9-9-9-9-9-9-9-9-9-9-9-||-5-5-5-5-5-5-5-5-0-0-0-0-2-2-2-2-|-9-9-9-9-9-9-9-9-9-9-9-9-9-9-9-| Play x 3 | Play x 12
Outro
|---------------------||---------------------||---------------------||-7-9-9-9-0-2-x-5-4-0-||-7-9-9-9-0-2-x-5-4-0-||-7-9-9-9-0-2-x-5-4-0-| Play x 36
6 – Birth Defect Drop D Tuning
Intro 1||------------------------------------------------------|-------------||-1010101010101010101010101010101010101010101010101010-|-------------||-1111111111111111111111111111111111111111111111111111-|-------------||-9-9-9-9-9-9-9-9-9-9-9-9-9-9-9-9-9-9-9-9-9-9-9-9-9-9--|-7-7-7-7-7-7-||-9-9-9-9-9-9-9-9-9-9-9-9-9-9-9-9-9-9-9-9-9-9-9-9-9-9--|-7-7-7-7-7-7-||-9-9-9-9-9-9-9-9-9-9-9-9-9-9-9-9-9-9-9-9-9-9-9-9-9-9--|-7-7-7-7-7-7-|
2||---------------| |---------------| |---------------| |-7-7-7-7-5-5-5-| |-7-7-7-7-5-5-5-| |-7-7-7-7-5-5-5-|
Verse
|--------------|-------------|--------------|-------------|--------------||--------------|-------------|--------------|-------------|-7-7-7-7-7-7^-||--------------|-------------|--------------|-------------|-9-9-9-9-9-9^-||-4--x-x-4-<5>-|-4-5-0-2-2p0-|-4--x-x-4-<5>-|-4-5-0-2-2p0-|--------------||-4--x-x-4-<5>-|-4-5-0-2-2p0-|-4--x-x-4-<5>-|-4-5-0-2-2p0-|--------------||-4--x-x-4-<5>-|-4-5-0-2-2p0-|-4--x-x-4-<5>-|-4-5-0-2-2p0-|--------------| Play x 7 | | Play x 11 | | Play x 4
|--------------|-------------||--------------|-------------||--------------|-------------||-4--x-x-4-<5>-|-4-5-0-2-2p0-||-4--x-x-4-<5>-|-4-5-0-2-2p0-||-4--x-x-4-<5>-|-4-5-0-2-2p0-|| Play x 11 |
Chorus 1| 2||-0-0-0-0-0-0-0-0-0-0-0-0-|-0-0-0-0-0-0-|-0-0-0-0-0-0-0-0-0-0-0-0-0-0-0-| |-0-0-0-0-0-0-0-0-3-3-3-3-|-0-0-0-0-0-0-|-0-0-0-0-0-0-0-0-0-0-0-0-0-0-0-| |-0-0-0-0-0-0-0-0-2-2-2-2-|-0-0-0-0-0-0-|-0-0-0-0-0-0-0-0-0-0-0-0-0-0-0-| |-4-4-4-4-5-5-5-5-0-0-0-0-|-2-2-2-3-3-3-|-2-2-2-3-3-3-4-4-4-5-5-5-7-7-7-| |-4-4-4-4-5-5-5-5-0-0-0-0-|-2-2-2-3-3-3-|-2-2-2-3-3-3-4-4-4-5-5-5-7-7-7-| |-4-4-4-4-5-5-5-5-0-0-0-0-|-2-2-2-3-3-3-|-2-2-2-3-3-3-4-4-4-5-5-5-7-7-7-| / / / / / / / / / / / / / / / / / / / / / / / / / / / / / / / / /
1||------------------------------------------------------|-------------||-1010101010101010101010101010101010101010101010101010-|-------------||-1111111111111111111111111111111111111111111111111111-|-------------||-9-9-9-9-9-9-9-9-9-9-9-9-9-9-9-9-9-9-9-9-9-9-9-9-9-9--|-7-7-7-7-7-7-||-9-9-9-9-9-9-9-9-9-9-9-9-9-9-9-9-9-9-9-9-9-9-9-9-9-9--|-7-7-7-7-7-7-||-9-9-9-9-9-9-9-9-9-9-9-9-9-9-9-9-9-9-9-9-9-9-9-9-9-9--|-7-7-7-7-7-7-|
2||---------------| |---------------| |---------------| |-7-7-7-7-5-5-5-| |-7-7-7-7-5-5-5-| |-7-7-7-7-5-5-5-|
Bridge
|------------------------------------------------------| |----------5------------5------------5-----------------| |----------7------------7------------7-----------------| |-4--x-x-4-0---4--x-x-4-0---4--x-x-4-0---9-7--5--7-7-5-| |-4--x-x-4-0---4--x-x-4-0---4--x-x-4-0---9-7--5--7-7-5-| |-4--x-x-4-0---4--x-x-4-0---4--x-x-4-0---9-7--5--7-7-5-|
|------------------------------------------------------| |----------5------------5------------5-----------------| |----------7------------7------------7-----------------| |-4--x-x-4-0---4--x-x-4-0---4--x-x-4-0---4-5--0--2-2p0-| |-4--x-x-4-0---4--x-x-4-0---4--x-x-4-0---4-5--0--2-2p0-| |-4--x-x-4-0---4--x-x-4-0---4--x-x-4-0---4-5--0--2-2p0-| Play x 2
|------------------------------------------------------| |----------5------------5------------5-----------------| |----------7------------7------------7-----------------| |-4--x-x-4-----4--x-x-4-----4--x-x-4-----9-7--5--7-7-5-| |-4--x-x-4-----4--x-x-4-----4--x-x-4-----9-7--5--7-7-5-| |-4--x-x-4-----4--x-x-4-----4--x-x-4-----9-7--5--7-7-5-|
|--------------------------------------------------------| |----------5------------5------------5-------------------||----------7------------7------------7-------------------||-4--x-x-4-----4--x-x-4-----4--x-x-4-----4-5--0--2-2p0-3-||-4--x-x-4-----4--x-x-4-----4--x-x-4-----4-5--0--2-2p0-3-||-4--x-x-4-----4--x-x-4-----4--x-x-4-----4-5--0--2-2p0-3-|
1| 2||-0-0-0-0-0-0-0-0-0-0-0-0-|-0-0-0-0-0-0-|-0-0-0---------------| |-0-0-0-0-0-0-0-0-3-3-3-3-|-0-0-0-0-0-0-|-0-0-0---------------||-0-0-0-0-0-0-0-0-2-2-2-2-|-0-0-0-0-0-0-|-0-0-0---------------| |-4-4-4-4-5-5-5-5-0-0-0-0-|-2-2-2-3-3-3-|-2-2-2-9-7--5--7-7-5-||-4-4-4-4-5-5-5-5-0-0-0-0-|-2-2-2-3-3-3-|-2-2-2-9-7--5--7-7-5-| |-4-4-4-4-5-5-5-5-0-0-0-0-|-2-2-2-3-3-3-|-2-2-2-9-7--5--7-7-5-| / / / / / / / / / / / / / / / / / / / / /
Outro
|-0-0-0-0-0-0-0-0-0-0-0-0-0-0-0-0-0-0-0-0-0-0-0-0-0-0-0-0-----||-0-0-0-0-0-0-0-0-0-0-0-0-0-0-0-0-0-0-0-0-0-0-0-0-0-0-0-0-11~-||-0-0-0-0-0-0-0-0-0-0-0-0-0-0-0-0-0-0-0-0-0-0-0-0-0-0-0-0-10~-||-4-4-4-4-5-5-5-5-7-7-7-7-9-9-9-9-4-4-4-4-5-5-5-5-7-7-7-7-9~~-||-4-4-4-4-5-5-5-5-7-7-7-7-9-9-9-9-4-4-4-4-5-5-5-5-7-7-7-7-9~~-||-4-4-4-4-5-5-5-5-7-7-7-7-9-9-9-9-4-4-4-4-5-5-5-5-7-7-7-7-9~~-| / / / / / / / / / / / / / / / / / / / / / / / / / / / /
7 – Broadcast Emotion Drop D Tuning Verse
|------------------------------------------||-7-----12--7-----12--7-----12-------------||-6-----11--6-----11--6-----11-------------||-4--0--9---4--0--9---4--0--9---4-6-7-9--7-||-4--0--9---4--0--9---4--0--9---4-6-7-9--7-||-4--0--9---4--0--9---4--0--9---4-6-7-9--7-| Play x 4
Chorus
|-----------------------------------------------------------------||-7-7-7-7-7-7-7-7-7-7-7-7-7-7-7-7-10101010101010101010101010101010||-6-6-6-6-6-6-6-6-6-6-6-6-6-6-6-6-9-9-9-9-9-9-9-9-9-9-9-9-9-9-9-9-||-4-4-4-4-4-4-4-4-4-4-4-4-4-4-4-4-7-7-7-7-7-7-7-7-7-7-7-7-7-7-7-7-||-4-4-4-4-4-4-4-4-4-4-4-4-4-4-4-4-7-7-7-7-7-7-7-7-7-7-7-7-7-7-7-7-||-4-4-4-4-4-4-4-4-4-4-4-4-4-4-4-4-7-7-7-7-7-7-7-7-7-7-7-7-7-7-7-7-|
|-----------------------------------------------------------------||-5-5-5-5-5-5-5-5-5-5-5-5-5-5-5-5-3-3-3-3-3-3-3-3-3-3-3-3-3-3-3-3-||-4-4-4-4-4-4-4-4-4-4-4-4-4-4-4-4-2-2-2-2-2-2-2-2-2-2-2-2-2-2-2-2-||-2-2-2-2-2-2-2-2-2-2-2-2-2-2-2-2-0-0-0-0-0-0-0-0-0-0-0-0-0-0-0-0-||-2-2-2-2-2-2-2-2-2-2-2-2-2-2-2-2-0-0-0-0-0-0-0-0-0-0-0-0-0-0-0-0-||-2-2-2-2-2-2-2-2-2-2-2-2-2-2-2-2-0-0-0-0-0-0-0-0-0-0-0-0-0-0-0-0-|
|-----------------------------------------------------------------||-7-7-7-7-7-7-7-7-7-7-7-7-7-7-7-7-8-8-8-8-8-8-8-8-8-8-8-8-8-8-8-8-||-6-6-6-6-6-6-6-6-6-6-6-6-6-6-6-6-7-7-7-7-7-7-7-7-7-7-7-7-7-7-7-7-||-4-4-4-4-4-4-4-4-4-4-4-4-4-4-4-4-5-5-5-5-5-5-5-5-5-5-5-5-5-5-5-5-||-4-4-4-4-4-4-4-4-4-4-4-4-4-4-4-4-5-5-5-5-5-5-5-5-5-5-5-5-5-5-5-5-||-4-4-4-4-4-4-4-4-4-4-4-4-4-4-4-4-5-5-5-5-5-5-5-5-5-5-5-5-5-5-5-5-|
|-----------------------------------------------------------------||-9-9-9-9-9-9-9-9-9-9-9-9-9-9-9-9-10101010101010101010101010101010||-8-8-8-8-8-8-8-8-8-8-8-8-8-8-8-8-9-9-9-9-9-9-9-9-9-9-9-9-9-9-9-9-||-6-6-6-6-6-6-6-6-6-6-6-6-6-6-6-6-7-7-7-7-7-7-7-7-7-7-7-7-7-7-7-7-||-6-6-6-6-6-6-6-6-6-6-6-6-6-6-6-6-7-7-7-7-7-7-7-7-7-7-7-7-7-7-7-7-||-6-6-6-6-6-6-6-6-6-6-6-6-6-6-6-6-7-7-7-7-7-7-7-7-7-7-7-7-7-7-7-7-|
|------------------------------------------||-7-----12--7-----12--7-----12-------------||-6-----11--6-----11--6-----11-------------||-4--0--9---4--0--9---4--0--9---4-6-7-9--7-||-4--0--9---4--0--9---4--0--9---4-6-7-9--7-||-4--0--9---4--0--9---4--0--9---4-6-7-9--7-| Play x 4
|-----------------------------------------------------------------||-7-7-7-7-7-7-7-7-7-7-7-7-7-7-7-7-10101010101010101010101010101010||-6-6-6-6-6-6-6-6-6-6-6-6-6-6-6-6-9-9-9-9-9-9-9-9-9-9-9-9-9-9-9-9-||-4-4-4-4-4-4-4-4-4-4-4-4-4-4-4-4-7-7-7-7-7-7-7-7-7-7-7-7-7-7-7-7-||-4-4-4-4-4-4-4-4-4-4-4-4-4-4-4-4-7-7-7-7-7-7-7-7-7-7-7-7-7-7-7-7-||-4-4-4-4-4-4-4-4-4-4-4-4-4-4-4-4-7-7-7-7-7-7-7-7-7-7-7-7-7-7-7-7-|
|-----------------------------------------------------------------||-5-5-5-5-5-5-5-5-5-5-5-5-5-5-5-5-3-3-3-3-3-3-3-3-3-3-3-3-3-3-3-3-||-4-4-4-4-4-4-4-4-4-4-4-4-4-4-4-4-2-2-2-2-2-2-2-2-2-2-2-2-2-2-2-2-||-2-2-2-2-2-2-2-2-2-2-2-2-2-2-2-2-0-0-0-0-0-0-0-0-0-0-0-0-0-0-0-0-||-2-2-2-2-2-2-2-2-2-2-2-2-2-2-2-2-0-0-0-0-0-0-0-0-0-0-0-0-0-0-0-0-||-2-2-2-2-2-2-2-2-2-2-2-2-2-2-2-2-0-0-0-0-0-0-0-0-0-0-0-0-0-0-0-0-|
|-----------------------------------------------------------------||-7-7-7-7-7-7-7-7-7-7-7-7-7-7-7-7-8-8-8-8-8-8-8-8-8-8-8-8-8-8-8-8-||-6-6-6-6-6-6-6-6-6-6-6-6-6-6-6-6-7-7-7-7-7-7-7-7-7-7-7-7-7-7-7-7-||-4-4-4-4-4-4-4-4-4-4-4-4-4-4-4-4-5-5-5-5-5-5-5-5-5-5-5-5-5-5-5-5-||-4-4-4-4-4-4-4-4-4-4-4-4-4-4-4-4-5-5-5-5-5-5-5-5-5-5-5-5-5-5-5-5-||-4-4-4-4-4-4-4-4-4-4-4-4-4-4-4-4-5-5-5-5-5-5-5-5-5-5-5-5-5-5-5-5-|
|-----------------------------------------------------------------||-9-9-9-9-9-9-9-9-9-9-9-9-9-9-9-9-10101010101010101010101010101010||-8-8-8-8-8-8-8-8-8-8-8-8-8-8-8-8-9-9-9-9-9-9-9-9-9-9-9-9-9-9-9-9-||-6-6-6-6-6-6-6-6-6-6-6-6-6-6-6-6-7-7-7-7-7-7-7-7-7-7-7-7-7-7-7-7-||-6-6-6-6-6-6-6-6-6-6-6-6-6-6-6-6-7-7-7-7-7-7-7-7-7-7-7-7-7-7-7-7-||-6-6-6-6-6-6-6-6-6-6-6-6-6-6-6-6-7-7-7-7-7-7-7-7-7-7-7-7-7-7-7-7-|
Middle 8 | 1,3,5,7| 2,4,6||-----------------|-----------------|--------------|-----------------||-1010101010101010|-----------------|--------------|-----------------||-9-9-9-9-9-9-9-9-|-----------------|--------------|-----------------||-7-7-7-7-7-7-7-7-|-0-2-2-2-0-2-0-2-|-x-2--2-3-2-0-|-5-5-5-5-5-5-4-0-||-7-7-7-7-7-7-7-7-|-0-2-2-2-0-2-0-2-|-x-2--2-3-2-0-|-5-5-5-5-5-5-4-0-||-7-7-7-7-7-7-7-7-|-0-2-2-2-0-2-0-2-|-x-2--2-3-2-0-|-5-5-5-5-5-5-4-0-|
|
8||-----------------||-8-8-8-8-8-8-8-8-||-7-7-7-7-7-7-7-7-||-5-5-5-5-5-5-5-5-||-5-5-5-5-5-5-5-5-||-5-5-5-5-5-5-5-5-|
Outro
|------------------------------------------||-7-----12--7-----12--7-----12-------------||-6-----11--6-----11--6-----11-------------||-4--0--9---4--0--9---4--0--9---4-6-7-9--7-||-4--0--9---4--0--9---4--0--9---4-6-7-9--7-||-4--0--9---4--0--9---4--0--9---4-6-7-9--7-| Play x 4
8 – It’s Easy To Get Bored Drop D Tuning Intro
|----------------------------||----------------------------||----------------------------||-0-5-7--5h7-7--0-5-7--5h7-7-||-0-5-7--5h7-7--0-5-7--5h7-7-||-0-5-7--5h7-7--0-5-7--5h7-7-| Play x 10
Verse
|----------------------------||----------------------------||----------------------------||-0h5-7--5h7-7--0h5-7--5h7-7-||-0h5-7--5h7-7--0h5-7--5h7-7-||-0h5-7--5h7-7--0h5-7--5h7-7-| Play x 12
Chorus
|------------------------------||------------------------------||------------------------------||-3-3-3-3-3-3-3--0--0-0-1--1-1-||-3-3-3-3-3-3-3--0--0-0-1--1-1-||-3-3-3-3-3-3-3--0--0-0-1--1-1-| Play x 4
|--------------|------------------------------------|--------------||--------------|------------------------------------|--------------||--------------|------------------------------------|--------------||-0h5-7--5h7-7-|-3-3-3-3-3-3-3-3-/8-8-8-8-8-8-8-8-8-|-0h5-7--5h7-7-||-0h5-7--5h7-7-|-3-3-3-3-3-3-3-3-/8-8-8-8-8-8-8-8-8-|-0h5-7--5h7-7-||-0h5-7--5h7-7-|-3-3-3-3-3-3-3-3-/8-8-8-8-8-8-8-8-8-|-0h5-7--5h7-7-| Play x 24 | | Play x 4
|------------------------------------||------------------------------------||------------------------------------||-3-3-3-3-3-3-3-3-/8-8-8-8-8-8-8-8-8-||-3-3-3-3-3-3-3-3-/8-8-8-8-8-8-8-8-8-||-3-3-3-3-3-3-3-3-/8-8-8-8-8-8-8-8-8-|
Outro
|----------------------------|-----||----------------------------|-----||----------------------------|-----||-0h5-7--5h7-7--0h5-7--5h7-7-|-7~~-||-0h5-7--5h7-7--0h5-7--5h7-7-|-7~~-||-0h5-7--5h7-7--0h5-7--5h7-7-|-7~~-| Play x 26 |
9 – Diet Aftertaste Drop D Tuning – D, A, D, G, B, E Intro
|------------6--6-|-----------------------||------------6--6-|-----------------------||------------5--5-|-----------------------||-3--0--12-0h3--3-|-3--0--12-0h3--3--10~~-||-3--0--12-0h3--3-|-3--0--12-0h3--3--10~~-||-3--0--12-0h3--3-|-3--0--12-0h3--3--10~~-|
Verse
|--------------------------------------------------------------||--------------------------------------------------------------||--------------------------------------------------------------||-3--0--12-0h3--3-3-3-3-3-3-3-3-8-8-8-8-8-8-8-8-6-6-6-6-6-6-5/-||-3--0--12-0h3--3-3-3-3-3-3-3-3-8-8-8-8-8-8-8-8-6-6-6-6-6-6-5/-||-3--0--12-0h3--3-3-3-3-3-3-3-3-8-8-8-8-8-8-8-8-6-6-6-6-6-6-5/-|
|-----------------|-----------------------------------------------||-----------------|-----------------------------------------------||-----------------|-----------------------------------------------||-3--0--12-0h3--3-|-3--0--12-0h3--3-3-3-3-3-3-3-3-8-8-8-8-8-8-8-8-||-3--0--12-0h3--3-|-3--0--12-0h3--3-3-3-3-3-3-3-3-8-8-8-8-8-8-8-8-||-3--0--12-0h3--3-|-3--0--12-0h3--3-3-3-3-3-3-3-3-8-8-8-8-8-8-8-8-| Play x 6 |
|----------------||----------------||----------------||-6-6-6-6-6-6-5/-||-6-6-6-6-6-6-5/-||-6-6-6-6-6-6-5/-|
Chorus
|-------------------------------||-------------------------------||-------------------------------||-0--3--0--0--12--0-0-3-3--1--0-||-0--3--0--0--12--0-0-3-3--1--0-||-0--3--0--0--12--0-0-3-3--1--0-|
|-----------------|-----------------------|-----------------||-----------------|-----------------------|-----------------||-----------------|-----------------------|-----------------||-3--0--12-0h3--3-|-3--0--12-0h3--3--10~~-|-3--0--12-0h3--3-||-3--0--12-0h3--3-|-3--0--12-0h3--3--10~~-|-3--0--12-0h3--3-||-3--0--12-0h3--3-|-3--0--12-0h3--3--10~~-|-3--0--12-0h3--3-| | Play x 3
|-----------------------|-----------------------------------------||-----------------------|-----------------------------------------||-----------------------|-----------------------------------------||-3--0--12-0h3--3--10~~-|-3--0--12-0h3--3-3-3-3-3-3-3-3-8-8-8-8-8-||-3--0--12-0h3--3--10~~-|-3--0--12-0h3--3-3-3-3-3-3-3-3-8-8-8-8-8-||-3--0--12-0h3--3--10~~-|-3--0--12-0h3--3-3-3-3-3-3-3-3-8-8-8-8-8-|
|----------------------||----------------------||----------------------||-8-8-8-6-6-6-6-6-6-5/-||-8-8-8-6-6-6-6-6-6-5/-||-8-8-8-6-6-6-6-6-6-5/-|
Middle 8 1,2,3,4,5,6,7| 8||----------------------|-------------------|-------------------------||----------------------|-------------------|-------------------------||----------------------|-------------------|-------------------------||-0-10-12--12-12-10-10-|-3-3-3-5-5-5-5-3-0-|-3-3-3-3-3-3-3-3-3-3-3-3-||-0-10-12--12-12-10-10-|-3-3-3-5-5-5-5-3-0-|-3-3-3-3-3-3-3-3-3-3-3-3-||-0-10-12--12-12-10-10-|-3-3-3-5-5-5-5-3-0-|-3-3-3-3-3-3-3-3-3-3-3-3-|
Solo
|---------------------------------|---------------------------------------||---------------------------------|---------------------------------------||---------------------------------|---------------------------------------||-0-3-5-5-5-3-3-5---3-3-5-5-3-5-0-|-7-7-7-7-7-7-7-7---3-3-3-3-3-3-3-3-3-3-||-0-3-5-5-5-3-3-5---3-3-5-5-3-5-0-|-7-7-7-7-7-7-7-7---3-3-3-3-3-3-3-3-3-3-||-0-3-5-5-5-3-3-5---3-3-5-5-3-5-0-|-7-7-7-7-7-7-7-7---3-3-3-3-3-3-3-3-3-3-| Play x 8 | Play x 2
Outro 1,2,3,4,5,6,7| 8||----------------------|-------------------|-------------------------||----------------------|-------------------|-------------------------||----------------------|-------------------|-------------------------||-0-10-12--12-12-10-10-|-3-3-3-5-5-5-5-3-0-|-3-3-3-3-3-3-3-3-3-3-3-3-||-0-10-12--12-12-10-10-|-3-3-3-5-5-5-5-3-0-|-3-3-3-3-3-3-3-3-3-3-3-3-||-0-10-12--12-12-10-10-|-3-3-3-5-5-5-5-3-0-|-3-3-3-3-3-3-3-3-3-3-3-3-|
10 – Harmless Drop D Tuning Intro
|-----|-------------------------------------|------------------------||-----|-------------------------------------|------------------------||-----|-------------------------------------|------------------------||-9~~-|-9--3--0--2--0--2-2-----9--3--0--2~~-|-9--3--0--2--0--2-3-4-7-||-9~~-|-9--3--0--2--0--2-2-----9--3--0--2~~-|-9--3--0--2--0--2-3-4-7-||-9~~-|-9--3--0--2--0--2-2-----9--3--0--2~~-|-9--3--0--2--0--2-3-4-7-| | Play x 8
Verse
|------------------------------||------------------------------||------------------------------||-2-0-2--2-0-2--2-0-2--2-0-0h2-||-2-0-2--2-0-2--2-0-2--2-0-0h2-||-2-0-2--2-0-2--2-0-2--2-0-0h2-| Play x 4
Chorus
|------------------------||------------------------||------------------------||-9--3--0--2--0--2-3-4-7-||-9--3--0--2--0--2-3-4-7-||-9--3--0--2--0--2-3-4-7-| Play x 8
|------------------------------||------------------------------||------------------------------||-2-0-2--2-0-2--2-0-2--2-0-0h2-||-2-0-2--2-0-2--2-0-2--2-0-0h2-||-2-0-2--2-0-2--2-0-2--2-0-0h2-| Play x 4
|------------------------|-------------------|------||------------------------|-1010101010101010--|-DRUM-||------------------------|-9-9-9-9-9-9-9-9---|------||-9--3--0--2--0--2-3-4-7-|-8-8-8-8-8-8-8-8-9-|------||-9--3--0--2--0--2-3-4-7-|-8-8-8-8-8-8-8-8-9-|-SOLO-||-9--3--0--2--0--2-3-4-7-|-8-8-8-8-8-8-8-8-9-|------| Play x 8 |
Outro
|------------------------|-------------------|------------------------||------------------------|-1010101010101010--|------------------------||------------------------|-9-9-9-9-9-9-9-9---|------------------------||-9--3--0--2--0--2-3-4-7-|-8-8-8-8-8-8-8-8-9-|-9--3--0--2--0--2-3-4-7-||-9--3--0--2--0--2-3-4-7-|-8-8-8-8-8-8-8-8-9-|-9--3--0--2--0--2-3-4-7-||-9--3--0--2--0--2-3-4-7-|-8-8-8-8-8-8-8-8-9-|-9--3--0--2--0--2-3-4-7-| Play x 8 | | Play x 8
|-----||-----||-----||-8~~-||-8~~-||-8~~-|
11 – (High) Visibility Drop D Tuning Intro
|------|----------------||-BASS-|----------------||------|----------------||------|----------------||-ONLY-|----------------||------|-3^p0-3^p0-3^p0-|
Verse
|--------------------|--------------|-------||--------------------|--------------|-------||--------------------|--------------|-------||-3--0-0--3-0-0--3-0-|-0-3-0--0-3p0-|-3p0-0-||-3--0-0--3-0-0--3-0-|-0-3-0--0-3p0-|-3p0-0-||-3--0-0--3-0-0--3-0-|-0-3-0--0-3p0-|-3p0-0-| | Play x 18 |
Chorus
|----------------------------------||----------------------------------||----------------------------------||-8-8-8-8-8-8-8-8-8-8-8-8-3p0-0-/8-||-8-8-8-8-8-8-8-8-8-8-8-8-3p0-0-/8-||-8-8-8-8-8-8-8-8-8-8-8-8-3p0-0-/8-| Play x 4
Solo 1,2,3| 4||-------------------------|----------|----------------------------------||-------------------------|----------|----------------------------------||-------------------------|----------|----------------------------------||-3-0-0-3-0-6-6-5-0-3-0-0-|-/8-8-6-0-|-8-8-8-8-8-8-8-8-8-8-8-8-3p0-0-/8-||-3-0-0-3-0-6-6-5-0-3-0-0-|-/8-8-6-0-|-8-8-8-8-8-8-8-8-8-8-8-8-3p0-0-/8-||-3-0-0-3-0-6-6-5-0-3-0-0-|-/8-8-6-0-|-8-8-8-8-8-8-8-8-8-8-8-8-3p0-0-/8-| | Play x 4
Outro
|-----||-----||-----||-5~~-||-5~~-||-5~~-|
12 – Insatiable Drop D Tuning Intro/Verse
|---------------------------------------||---------------------------------------||---------------------------------------||-2-0-0-2--2-0-0-0-2---2-0-0-2--2-0-0-3-||-2-0-0-2--2-0-0-0-2---2-0-0-2--2-0-0-3-||-2-0-0-2--2-0-0-0-2---2-0-0-2--2-0-0-3-| Play x 8
Break
|----------------------------||-0~~~-----------------------||-0~~~-----------------------||-5~~~-----------------------||-5~~~-----------------------||-5~~~---5-5-4-4-3-3-2-2-0-0-| PM……………………………………………
|---------------------------------------||---------------------------------------||---------------------------------------||-2-0-0-2--2-0-0-0-2---2-0-0-2--2-0-0-3-||-2-0-0-2--2-0-0-0-2---2-0-0-2--2-0-0-3-||-2-0-0-2--2-0-0-0-2---2-0-0-2--2-0-0-3-| Play x 6
Chorus
|-----------|--------------------------------------||-----------|--------------------------------------||-----------|--------------------------------------||-0-0-3-0-0-|-7--8--9--0-3-2-0--7-7-7-8-9--0-3-2-0-||-0-0-3-0-0-|-7--8--9--0-3-2-0--7-7-7-8-9--0-3-2-0-||-0-0-3-0-0-|-7--8--9--0-3-2-0--7-7-7-8-9--0-3-2-0-| PM………………… | Play x 4
Middle 8
|--------------------------------------||--------------------------------------||--------------------------------------||-2-0-0-2--2-0-0-0-2--2-0-0-2--2-0-0-3-||-2-0-0-2--2-0-0-0-2--2-0-0-2--2-0-0-3-||-2-0-0-2--2-0-0-0-2--2-0-0-2--2-0-0-3-| PM………………………………………………………………………………………… Play x 4
|------------------------------------||------------------------------------||------------------------------------||-0-0-0-2--0-0-0-2--0-0-0-2--0-0-0-3-||-0-0-0-2--0-0-0-2--0-0-0-2--0-0-0-3-||-0-0-0-2--0-0-0-2--0-0-0-2--0-0-0-3-| Play x 4
Outro
|--------------------------------------|---------------------------||--------------------------------------|-0~~-----------------------||--------------------------------------|-0~~-----------------------||-7--8--9--0-3-2-0--7-7-7-8-9--0-3-2-0-|-5~~---5-5-4-4-3-3-2-2-0-0-||-7--8--9--0-3-2-0--7-7-7-8-9--0-3-2-0-|-5~~---5-5-4-4-3-3-2-2-0-0-||-7--8--9--0-3-2-0--7-7-7-8-9--0-3-2-0-|-5~~---5-5-4-4-3-3-2-2-0-0-| Play x 6 |
13 – Crisis King Drop D Tuning Intro
|-------------------| |-------------------||-------------------||-0-2-4-2-4-4-2-2-4-||-0-2-4-2-4-4-2-2-4-||-0-2-4-2-4-4-2-2-4-| Play x 8
Verse
|-4-4-4-4-4-4-4-4-4-4-4-4-||-7-7-7-7-7-7-7-7-7-7-7-7-||-6-6-6-6-6-6-6-6-6-6-6-6-||-4-4-4-4-4-4-4-4-4-4-4-4-||-4-4-4-4-4-4-4-4-4-4-4-4-||-4-4-4-4-4-4-4-4-4-4-4-4-| Play x 8
|-------------------| |-------------------||-------------------||-0-2-4-2-4-4-2-2-4-||-0-2-4-2-4-4-2-2-4-||-0-2-4-2-4-4-2-2-4-| Play x 4
|-4-4-4-4-4-4-4-4-4-4-4-4-||-7-7-7-7-7-7-7-7-7-7-7-7-||-6-6-6-6-6-6-6-6-6-6-6-6-||-4-4-4-4-4-4-4-4-4-4-4-4-||-4-4-4-4-4-4-4-4-4-4-4-4-||-4-4-4-4-4-4-4-4-4-4-4-4-| Play x 4
Chorus 1,2,3| 4||-0-0-0-0-0-0-1-1-1-1-1-1-2-2-2-2-2-2-|-3-3-3-3-3-3-|----------||-3-3-3-3-3-3-4-4-4-4-4-4-5-5-5-5-5-5-|-6-6-6-6-6-6-|----------||-2-2-2-2-2-2-3-3-3-3-3-3-4-4-4-4-4-4-|-5-5-5-5-5-5-|----------| |-0-0-0-0-0-0-1-1-1-1-1-1-2-2-2-2-2-2-|-3-3-3-3-3-3-|-0-3--0-3-||-0-0-0-0-0-0-1-1-1-1-1-1-2-2-2-2-2-2-|-3-3-3-3-3-3-|-0-3--0-3-||-0-0-0-0-0-0-1-1-1-1-1-1-2-2-2-2-2-2-|-3-3-3-3-3-3-|-0-3--0-3-|
|-------------------| |-------------------||-------------------||-0-2-4-2-4-4-2-2-4-||-0-2-4-2-4-4-2-2-4-||-0-2-4-2-4-4-2-2-4-| Play x 4
|-4-4-4-4-4-4-4-4-4-4-4-4-||-7-7-7-7-7-7-7-7-7-7-7-7-||-6-6-6-6-6-6-6-6-6-6-6-6-||-4-4-4-4-4-4-4-4-4-4-4-4-||-4-4-4-4-4-4-4-4-4-4-4-4-||-4-4-4-4-4-4-4-4-4-4-4-4-| Play x 7
Middle 8
|--------------------------------------------------||--------------------------------------------------||--------------------------------------------------||-0-2-4-2-4-4-2-2-4--4-2-2-4--4-2-2-4--4-2-2-4-4-4-| |-0-2-4-2-4-4-2-2-4--4-2-2-4--4-2-2-4--4-2-2-4-4-4-| |-0-2-4-2-4-4-2-2-4--4-2-2-4--4-2-2-4--4-2-2-4-4-4-|
|---------------------------------------------||---------------------------------------------||---------------------------------------------||-0-3--3-5-0-0-3--3-5-0-0-3--3-5-0-0-3--3-5-3-||-0-3--3-5-0-0-3--3-5-0-0-3--3-5-0-0-3--3-5-3-| |-0-3--3-5-0-0-3--3-5-0-0-3--3-5-0-0-3--3-5-3-| Play x 4
|------------------------------------||------------11111111111111111111111-||------------9-9-9-9-9-9-9-9-9-9-9-9-||-6-6-5-5-0-/8-8-8-8-8-8-8-8-8-8-8-8-||-6-6-5-5-0-/8-8-8-8-8-8-8-8-8-8-8-8-||-6-6-5-5-0-/8-8-8-8-8-8-8-8-8-8-8-8-|
Play x 3 1,2,3| 4||-0-0-0-0-0-0-1-1-1-1-1-1-2-2-2-2-2-2-|-3-3-3-3-3-3-|----------||-3-3-3-3-3-3-4-4-4-4-4-4-5-5-5-5-5-5-|-6-6-6-6-6-6-|----------||-2-2-2-2-2-2-3-3-3-3-3-3-4-4-4-4-4-4-|-5-5-5-5-5-5-|----------| |-0-0-0-0-0-0-1-1-1-1-1-1-2-2-2-2-2-2-|-3-3-3-3-3-3-|-0-3--0-5-||-0-0-0-0-0-0-1-1-1-1-1-1-2-2-2-2-2-2-|-3-3-3-3-3-3-|-0-3--0-5-||-0-0-0-0-0-0-1-1-1-1-1-1-2-2-2-2-2-2-|-3-3-3-3-3-3-|-0-3--0-5-|
Outro
|-2-2-2-2-2-2-2-2-2-2-2-2-2-2-2-2-2-2-2-2-2-2-2-2-|-----||-3-3-3-3-3-3-3-3-3-3-3-3-3-3-3-3-3-3-3-3-3-3-3-3-|-----||-2-2-2-2-2-2-2-2-2-2-2-2-2-2-2-2-2-2-2-2-2-2-2-2-|-----||-0-0-0-0-0-0-0-0-0-0-0-0-0-0-0-0-0-0-0-0-0-0-0-0-|-0~~-||-0-0-0-0-0-0-0-0-0-0-0-0-0-0-0-0-0-0-0-0-0-0-0-0-|-0~~-||-0-0-0-0-0-0-0-0-0-0-0-0-0-0-0-0-0-0-0-0-0-0-0-0-|-0~~-| Play x 12
And Thats's It.
Please rate this tab:
x1.0