Helmet – Just Another Victim tab

-----------------------------------------------------------------------------
                    JUST ANOTHER VICTIM - Helmet
-----------------------------------------------------------------------------

Tabbed by an17nin17
email - c.norman83@ntlworld.com

Drop D Tuning - D, A, D, G, B, E 

Intro 

|---------------| |---------------| |---------------| |-1p0-3-0-0-1p0-| |-1p0-3-0-0-1p0-| |-1p0-3-0-0-1p0-| Play x 10
Verse
|---------------| |---------------| |---------------| |-1p0-3-0-0-1p0-| |-1p0-3-0-0-1p0-| |-1p0-3-0-0-1p0-| Play x 8
Chorus
|------------------------| |------------------------| |------------------------| |-0-0-0-/10-12-0-0-0-0-3-| |-0-0-0-/10-12-0-0-0-0-3-| |-0-0-0-/10-12-0-0-0-0-3-| Play x 6
|---------------| |---------------| |---------------| |-1p0-3-0-0-1p0-| |-1p0-3-0-0-1p0-| |-1p0-3-0-0-1p0-| Play x 12
|------------------------|------------------| |------------------------|------------------| |------------------------|------------------| |-0-0-0-/10-12-0-0-0-0-3-|-0--3--2--5--0--6-| |-0-0-0-/10-12-0-0-0-0-3-|-0--3--2--5--0--6-| |-0-0-0-/10-12-0-0-0-0-3-|-0--3--2--5--0--6-| Play x 6 |
|---------------| |---------------| |---------------| |-1p0-3-0-0-1p0-| |-1p0-3-0-0-1p0-| |-1p0-3-0-0-1p0-| Play x 13
|------------------------|---------------------| |------------------------|-----------------0~~-| |------------------------|-----------------0~~-| |-0-0-0-/10-12-0-0-0-0-3-|-0-2-3-3-3-3-3-3-5~~-| |-0-0-0-/10-12-0-0-0-0-3-|-0-2-3-3-3-3-3-3-3~~-| |-0-0-0-/10-12-0-0-0-0-3-|-0-2-3-3-3-3-3-3-3~~-| Play x 8 |
Outro
|---------------------------| |---------------------------| |---------------------------| |-1-p-0---3---0---0---1-p-0-| |-1-p-0---3---0---0---1-p-0-| |-1-p-0---3---0---0---1-p-0-| Play x 40
And Thats it. Contact me if you have any comments about this tab or any others that I have done.
Please rate this tab:
x1.0