Helmet - Impressionable tab

-----------------------------------------------------------------------------
                       IMPRESSIONABLE - Helmet
-----------------------------------------------------------------------------

Tabbed by an17nin17
email - c.norman83@ntlworld.com

Standard Tuning - E, A, D, G, B, E

Intro

|--------------------------------|--------------------------------||--------------------------------|--------------------------------||--------------------------------|--------------------------------||-7-7-7--7-7-7--7-7-7--7-7-7-7-7-|-7-7-7--7-7-7--7-7-7--7-7-7-7-7-||-7-7-7--7-7-7--7-7-7--7-7-7-7-7-|-7-7-7--7-7-7--7-7-7--7-7-7-7-7-||-5-5-5--5-5-5--5-5-5--5-5-5-5-5-|-5-5-5--5-5-5--5-5-5--5-5-5-5-5-|
| Guitar 1|--------------------------------|--------------------------------||--------------------------------|--------------------------------||-14-14-14-14-14-14-14-14-14-14--|-21-21-21-21-21-21-21-21-21-21--||--------------------------------|--------------------------------||--------------------------------|--------------------------------||--------------------------------|--------------------------------| Guitar 2
Verse
|----------------------------------------------||----------------------------------------------||----------------------------------------------||-7-7-7-7-7----7-7-7-7-7----7-7-7-7-7--5-5-5-10||-7-7-7-7-7----7-7-7-7-7----7-7-7-7-7--5-5-5-10||-5-5-5-5-5--3/5-5-5-5-5--3/5-5-5-5-5--3-3-3-8-| Play x 4
Chorus
|-----<12>------<12>-||-----<12>------<12>-||-----<12>------<12>-||-9-9-------9-9------||-9-9-------9-9------||-7-7-------7-7------| Play x 4
|----------------------------------------------||----------------------------------------------||----------------------------------------------||-7-7-7-7-7----7-7-7-7-7----7-7-7-7-7--5-5-5-10||-7-7-7-7-7----7-7-7-7-7----7-7-7-7-7--5-5-5-10||-5-5-5-5-5--3/5-5-5-5-5--3/5-5-5-5-5--3-3-3-8-| Play x 4
|-----<12>------<12>-|-----||-----<12>------<12>-|-----||-----<12>------<12>-|-----||-9-9-------9-9------|-7~~-||-9-9-------9-9------|-7~~-||-7-7-------7-7------|-5~~-| Play x 4 |
|----------------------------------------------||----------------------------------------------||----------------------------------------------||-7-7-7-7-7----7-7-7-7-7----7-7-7-7-7--5-5-5-10||-7-7-7-7-7----7-7-7-7-7----7-7-7-7-7--5-5-5-10||-5-5-5-5-5--3/5-5-5-5-5--3/5-5-5-5-5--3-3-3-8-| Play x 4
|-----<12>------<12>-||-----<12>------<12>-||-----<12>------<12>-||-9-9-------9-9------||-9-9-------9-9------||-7-7-------7-7------| Play x 4
|----------------------------------------------||----------------------------------------------||----------------------------------------------||-7-7-7-7-7----7-7-7-7-7----7-7-7-7-7--5-5-5-10||-7-7-7-7-7----7-7-7-7-7----7-7-7-7-7--5-5-5-10||-5-5-5-5-5--3/5-5-5-5-5--3/5-5-5-5-5--3-3-3-8-| Play x 4
Outro
|-----<12>------<12>-||-----<12>------<12>-||-----<12>------<12>-||-9-9-------9-9------||-9-9-------9-9------||-7-7-------7-7------| Play x 4
And Thats it Contact me if you have any comments about this or any of the other tabs that I have done
Tap to rate this tab
 
# A B C D E F G H I J K L M N O P Q R S T U V W X Y Z