Helmet - Rock Messiah tab

-----------------------------------------------------------------------------
                         ROCK MESSIAH - Helmet
-----------------------------------------------------------------------------

Tabbed by an17nin17
Email - c.norman83@ntlworld.com

Drop B Tuning - B, F#, B, E, G#, C#

Intro Guitar 1 PM Throughout|------------------|--------------------|------------------|-----------||------------------|--------------------|------------------|-----------||------------------|--------------------|------------------|-----------||-0-0-3-0--0-3-0-3-|-0-0-0-3-0--0-3-0-3-|-0-0-3-0--0-3-0-3-|-0-0-0-3-0-||-0-0-3-0--0-3-0-3-|-0-0-0-3-0--0-3-0-3-|-0-0-3-0--0-3-0-3-|-0-0-0-3-0-||-0-0-3-0--0-3-0-3-|-0-0-0-3-0--0-3-0-3-|-0-0-3-0--0-3-0-3-|-0-0-0-3-0-| Play x 2 | | Play x 3 |
|---------|------------------||---------|------------------||---------|------------------||-0-3-0-3-|-0-0-3-0--0-3-0-3-||-0-3-0-3-|-0-0-3-0--0-3-0-3-||-0-3-0-3-|-0-0-3-0--0-3-0-3-| | Play x 2 w/PM then x 8 without
Guitar 2 (enters bar 3)|-----|-----------------||-----|-----------------||-5~~-|-----------------||-5~~-|-0-0-0-0-0-0-0-0-||-3~~-|-0-0-0-0-0-0-0-0-||-3~~-|-0-0-0-0-0-0-0-0-| | Play x 8
Verse
|--------------------------------------------------||--------------------------------------------------||--------------------------------------------------||-0h3-3-3-3--0h3-3-3-3--0h3-3-3-3--0h3-3-3-3-5-0-0-||-0h3-3-3-3--0h3-3-3-3--0h3-3-3-3--0h3-3-3-3-5-0-0-||-0h3-3-3-3--0h3-3-3-3--0h3-3-3-3--0h3-3-3-3-5-0-0-| Play x 4
Pre – Chorus
|------------------||------------------||------------------||-1-1--0---6-0-5-0-||-1-1--0---6-0-5-0-||-1-1--0---6-0-5-0-|
Chorus
|---------------------------------|-------||---------------------------------|-------||---------------------------------|-------||-3^-0--0-3^-0--0-3^-0--0-3-0-0-0-|-0-0-0-||-3^-0--0-3^-0--0-3^-0--0-3-0-0-0-|-0-0-0-||-3^-0--0-3^-0--0-3^-0--0-3-0-0-0-|-0-0-0-| Play x 4 |
|--------------------------------------------------||--------------------------------------------------||--------------------------------------------------||-0h3-3-3-3--0h3-3-3-3--0h3-3-3-3--0h3-3-3-3-5-0-0-||-0h3-3-3-3--0h3-3-3-3--0h3-3-3-3--0h3-3-3-3-5-0-0-||-0h3-3-3-3--0h3-3-3-3--0h3-3-3-3--0h3-3-3-3-5-0-0-| Play x 4
|-1-1-1-1-1-1-1-1-1-1-1-1-1-1-1-1-||-1-1-1-1-1-1-1-1-1-1-1-1-1-1-1-1-||-3-3-3-3-3-3-3-3-3-3-3-3-3-3-3-3-||-3-3-3-3-3-3-3-3-3-3-3-3-3-3-3-3-||-1-1-1-1-1-1-1-1-1-1-1-1-1-1-1-1-||-1-1-1-1-1-1-1-1-1-1-1-1-1-1-1-1-|
|---------------------------------|----------------------||---------------------------------|----------------------||---------------------------------|----------------------||-3^-0--0-3^-0--0-3^-0--0-3-0-0-0-|-0-0-0-0--0-0-0---0-0-||-3^-0--0-3^-0--0-3^-0--0-3-0-0-0-|-0-0-0-0--0-0-0---0-0-||-3^-0--0-3^-0--0-3^-0--0-3-0-0-0-|-0-0-0-0--0-0-0---0-0-| Play x 4 |
Middle 8
|------------------------------------------------------------------||------------------------------------------------------------------||------------------------------------------------------------------||-5-5-7-8--8-8-10-3^-0--0-3^-0--0-5-5-7-8--8-8-10-3^-0--0-10-12-10-||-5-5-7-8--8-8-10-3^-0--0-3^-0--0-5-5-7-8--8-8-10-3^-0--0-10-12-10-||-5-5-7-8--8-8-10-3^-0--0-3^-0--0-5-5-7-8--8-8-10-3^-0--0-10-12-10-| Play x 2
Outro 1,2,3| 4||-----------------------------|------------|---------||-----------------------------|------------|---------||-----------------------------|------------|---------||-7-7-7-7-7-7-7-7-7-7-7-7-7-7-|-10-12-10-0-|-10^-0~~-||-7-7-7-7-7-7-7-7-7-7-7-7-7-7-|-10-12-10-0-|-10^-0~~-||-7-7-7-7-7-7-7-7-7-7-7-7-7-7-|-10-12-10-0-|-10^-0~~-|
And Thats it. Contact me if you have any comments about this tab.
Tap to rate this tab
 
# A B C D E F G H I J K L M N O P Q R S T U V W X Y Z