Helmet – Blacktop tab

-----------------------------------------------------------------------------
                          BLACKTOP - Helmet
-----------------------------------------------------------------------------

Tabbed by an17nin17
Email - c.norman83@ntlworld.com

Drop D Tuning – D, A, D, G, B, E
 
Intro

|-------------||-------------||-------------||-2-x-x-2-x-x-||-2-x-x-2-x-x-||-2-x-x-2-x-x-| Play x 12
| 1,2,3,4,5,6| 7||--------------|---------|-----|-----||--------------|---------|-----|-----||--------------|---------|-----|-----||-3--3-0-3-4-3-|-0-3p0-3-|-4-3-|-4~~-||-3--3-0-3-4-3-|-0-3p0-3-|-4-3-|-4~~-||-3--3-0-3-4-3-|-0-3p0-3-|-4-3-|-4~~-|
| Verse
|-----------------------------------------------------------||-----------------------------------------------------------||-----------------------------------------------------------||-3--3-0-3-4-3--0-3p0-3-4-3--0-3p0-3-4-3--0-3p0-3-4-3-1~~-0-||-3--3-0-3-4-3--0-3p0-3-4-3--0-3p0-3-4-3--0-3p0-3-4-3-1~~-0-||-3--3-0-3-4-3--0-3p0-3-4-3--0-3p0-3-4-3--0-3p0-3-4-3-1~~-0-| Play x 4
Chorus
|-------------------------||-------------------------||-------------------------||-0-0-0-/7--3-3-0-3-4-5~~-||-0-0-0-/7--3-3-0-3-4-5~~-||-0-0-0-/7--3-3-0-3-4-5~~-| Play x 4
|-----------------------------------------------------------||-----------------------------------------------------------||-----------------------------------------------------------||-3--3-0-3-4-3--0-3p0-3-4-3--0-3p0-3-4-3--0-3p0-3-4-3-1~~-0-||-3--3-0-3-4-3--0-3p0-3-4-3--0-3p0-3-4-3--0-3p0-3-4-3-1~~-0-||-3--3-0-3-4-3--0-3p0-3-4-3--0-3p0-3-4-3--0-3p0-3-4-3-1~~-0-| Play x 4
1,2,3,4,5,6,7| 8||-------------|-------------|-----||-------------|-------------|-----||-------------|-------------|-----||-0-0-0-/7--3-|-3-0-3-4-5~~-|-3~~-||-0-0-0-/7--3-|-3-0-3-4-5~~-|-3~~-||-0-0-0-/7--3-|-3-0-3-4-5~~-|-3~~-|
Solo 1,2,3,4,5,6,7| 8||-----------------------|-------|---------------||-----------------------|-------|---------------||-----------------------|-------|---------------||-0--0-2-0-2-2-0--0-3-0-|-6-5-3-|-6-5-3-0-3-5-3-||-0--0-2-0-2-2-0--0-3-0-|-6-5-3-|-6-5-3-0-3-5-3-||-0--0-2-0-2-2-0--0-3-0-|-6-5-3-|-6-5-3-0-3-5-3-|
Middle 8
|-------------------------------------------|---------------------||-------------------------------------------|---------------------||-------------------------------------------|---------------------||-7--7--7-7-3--3--3-3-5--5--5-5-5-0-0-0-0-0-|-5-5-5-5-5-5-5-5-5-5-||-7--7--7-7-3--3--3-3-5--5--5-5-5-0-0-0-0-0-|-5-5-5-5-5-5-5-5-5-5-||-7--7--7-7-3--3--3-3-5--5--5-5-5-0-0-0-0-0-|-5-5-5-5-5-5-5-5-5-5-| Play x 3 | PM…………………………………………… Play x 4
Outro
|-------------------------|-----------------||-------------------------|-----------------||-------------------------|-----------------||-0-0-0-/7--3-3-0-3-4-5~~-|-6-5-3-0-3-5-3-0-||-0-0-0-/7--3-3-0-3-4-5~~-|-6-5-3-0-3-5-3-0-||-0-0-0-/7--3-3-0-3-4-5~~-|-6-5-3-0-3-5-3-0-| Play x 12* |
* After playing 6 times, guitar 2 enters
|-10^---------------------|-14^---------------------||-------------------------|-------------------------||-------------------------|-------------------------||-------------------------|-------------------------||-------------------------|-------------------------||-------------------------|-------------------------| Play x 3 | Play x 3
And That's It. Contact me if you have any comments about this tab.
Please rate this tab:
x1.0