Helmet – Distracted tab

-----------------------------------------------------------------------------
                        DISTRACTED - Helmet
-----------------------------------------------------------------------------

Tabbed by an17nin17
Email - c.norman83@ntlworld.com

Drop D Tuning – D, A, D, G, B, E

Intro

|---------------------||---------------------||---------------------||-3-0-3-5-0-3-0-3-5-0-||-3-0-3-5-0-3-0-3-5-0-||-3-0-3-5-0-3-0-3-5-0-| Play x 8
Verse
|---------------------------|---------------------||---------------------------|---------------------||---------------------------|---------------------||-3--3-0-2-3-0-3--3-0-2-3-0-|-3-0-3-5-0-3-0-3-5-0-||-3--3-0-2-3-0-3--3-0-2-3-0-|-3-0-3-5-0-3-0-3-5-0-||-3--3-0-2-3-0-3--3-0-2-3-0-|-3-0-3-5-0-3-0-3-5-0-| Play x 8 | Play x 2
|---------------------------|---------------------||---------------------------|---------------------||---------------------------|---------------------||-3--3-0-2-3-0-3--3-0-2-3-0-|-3-0-3-5-0-3-0-3-5-0-||-3--3-0-2-3-0-3--3-0-2-3-0-|-3-0-3-5-0-3-0-3-5-0-||-3--3-0-2-3-0-3--3-0-2-3-0-|-3-0-3-5-0-3-0-3-5-0-| Play x 4 | Play x 2
Pre – Chorus
|---------------------||---------------------||---------------------||-3-0-3-0-3-0-3-3-0-0-||-3-0-3-0-3-0-3-3-0-0-||-3-0-3-0-3-0-3-3-0-0-|
Chorus
|---------------------------------||---------------------------------||---------------------------------||-6-5-0-3-0-3-5-0-0-6-5-0-3-5-0-3-||-6-5-0-3-0-3-5-0-0-6-5-0-3-5-0-3-||-6-5-0-3-0-3-5-0-0-6-5-0-3-5-0-3-| Play x 4
|---------------------------|---------------------||---------------------------|---------------------||---------------------------|---------------------||-3--3-0-2-3-0-3--3-0-2-3-0-|-3-0-3-5-0-3-0-3-5-0-||-3--3-0-2-3-0-3--3-0-2-3-0-|-3-0-3-5-0-3-0-3-5-0-||-3--3-0-2-3-0-3--3-0-2-3-0-|-3-0-3-5-0-3-0-3-5-0-| Play x 8 | Play x 2
|---------------------------|---------------------||---------------------------|---------------------||---------------------------|---------------------||-3--3-0-2-3-0-3--3-0-2-3-0-|-3-0-3-5-0-3-0-3-5-0-||-3--3-0-2-3-0-3--3-0-2-3-0-|-3-0-3-5-0-3-0-3-5-0-||-3--3-0-2-3-0-3--3-0-2-3-0-|-3-0-3-5-0-3-0-3-5-0-| Play x 8 | Play x 3
|---------------------------------||---------------------------------||---------------------------------||-6-5-0-3-0-3-5-0-0-6-5-0-3-5-0-3-||-6-5-0-3-0-3-5-0-0-6-5-0-3-5-0-3-||-6-5-0-3-0-3-5-0-0-6-5-0-3-5-0-3-| Play x 4
Middle 8
|---------------------------------------|---------||---------------------------------------|---------||---------------------------------------|---------||-6-0-5-6-0-6-0-5-6-0-6-0-5-6-0-6-0-5-6-|-6-6-6-6-||-6-0-5-6-0-6-0-5-6-0-6-0-5-6-0-6-0-5-6-|-6-6-6-6-||-6-0-5-6-0-6-0-5-6-0-6-0-5-6-0-6-0-5-6-|-6-6-6-6-| Play x 4 (PM first x 2) |
Solo
|---------------------------||---------------------------||---------------------------||-3--3-0-2-3-0-3--3-0-2-3-0-||-3--3-0-2-3-0-3--3-0-2-3-0-||-3--3-0-2-3-0-3--3-0-2-3-0-|
| Guitar 1|---------------------------||---------------------------||---------------------------||-6-0-5-6-5-6-0-6-0-5-6-5-6-||---------------------------||---------------------------| Guitar 2 Play x 4
Outro
|---------------------------------|---------||---------------------------------|---------||---------------------------------|---------||-6-5-0-3-0-3-5-0-0-6-5-0-3-5-0-3-|-5-3-0-3-||-6-5-0-3-0-3-5-0-0-6-5-0-3-5-0-3-|-5-3-0-3-||-6-5-0-3-0-3-5-0-0-6-5-0-3-5-0-3-|-5-3-0-3-| Play x 10 |
And That's It. Contact me if you have any comments about this tab.
Please rate this tab:
x1.0