Helmet - Flushings tab

-----------------------------------------------------------------------------
                          FLUSHINGS - Helmet
-----------------------------------------------------------------------------

Tabbed by an17nin17
Email - c.norman83@ntlworld.com

Drop D Tuning - D, A, D, G, B, E

Intro

|---------------------||---------------------||---------------------||-0-2p0-1p0-3-2-0-1-2-||-0-2p0-1p0-3-2-0-1-2-||-0-2p0-1p0-3-2-0-1-2-| Play x 16
Note - Guitar plays this in a very odd time signature now and again
|-----||-3~~-||-1~~-| This fill appears in all of the verses|-----||-----||-----|
Chorus
|---------------------------------------||---------------------------------------||---------------------------------------||-0-2-1-0-/6-5-3-5---0-2-1-0-/6-5-3-5~~-||-0-2-1-0-/6-5-3-5---0-2-1-0-/6-5-3-5~~-||-0-2-1-0-/6-5-3-5---0-2-1-0-/6-5-3-5~~-| Play x 4
|---------------------||---------------------||---------------------||-0-2p0-1p0-3-2-0-1-2-||-0-2p0-1p0-3-2-0-1-2-||-0-2p0-1p0-3-2-0-1-2-| Play x 8
|---------------------------------------||---------------------------------------||---------------------------------------||-0-2-1-0-/6-5-3-5---0-2-1-0-/6-5-3-5~~-||-0-2-1-0-/6-5-3-5---0-2-1-0-/6-5-3-5~~-||-0-2-1-0-/6-5-3-5---0-2-1-0-/6-5-3-5~~-| Play x 4
Middle 8
|-------------------||-------------------||-------------------||-2h4-x-4-4-2h4-0-2-||-2h4-x-4-4-2h4-0-2-||-2h4-x-4-4-2h4-0-2-| Play x 12
Outro
|---------------------|-----||---------------------|-----||---------------------|-----||-0-2p0-1p0-3-2-0-1-2-|-0~~-||-0-2p0-1p0-3-2-0-1-2-|-0~~-||-0-2p0-1p0-3-2-0-1-2-|-0~~-| Play x 8 |
And That's It.
Tap to rate this tab
 
# A B C D E F G H I J K L M N O P Q R S T U V W X Y Z