Helmet - Crisis King tab

-----------------------------------------------------------------------------
                        CRISIS KING - Helmet
-----------------------------------------------------------------------------

Tabbed by an17nin17
Email - c.norman83@ntlworld.com

Drop D Tuning - D, A, D, G, B, E

Intro

|-------------------| |-------------------||-------------------||-0-2-4-2-4-4-2-2-4-||-0-2-4-2-4-4-2-2-4-||-0-2-4-2-4-4-2-2-4-| Play x 8
Verse
|-4-4-4-4-4-4-4-4-4-4-4-4-||-7-7-7-7-7-7-7-7-7-7-7-7-||-6-6-6-6-6-6-6-6-6-6-6-6-||-4-4-4-4-4-4-4-4-4-4-4-4-||-4-4-4-4-4-4-4-4-4-4-4-4-||-4-4-4-4-4-4-4-4-4-4-4-4-| Play x 8
|-------------------| |-------------------||-------------------||-0-2-4-2-4-4-2-2-4-||-0-2-4-2-4-4-2-2-4-||-0-2-4-2-4-4-2-2-4-| Play x 4
|-4-4-4-4-4-4-4-4-4-4-4-4-||-7-7-7-7-7-7-7-7-7-7-7-7-||-6-6-6-6-6-6-6-6-6-6-6-6-||-4-4-4-4-4-4-4-4-4-4-4-4-||-4-4-4-4-4-4-4-4-4-4-4-4-||-4-4-4-4-4-4-4-4-4-4-4-4-| Play x 4
Chorus 1,2,3| 4||-0-0-0-0-0-0-1-1-1-1-1-1-2-2-2-2-2-2-|-3-3-3-3-3-3-|----------||-3-3-3-3-3-3-4-4-4-4-4-4-5-5-5-5-5-5-|-6-6-6-6-6-6-|----------||-2-2-2-2-2-2-3-3-3-3-3-3-4-4-4-4-4-4-|-5-5-5-5-5-5-|----------| |-0-0-0-0-0-0-1-1-1-1-1-1-2-2-2-2-2-2-|-3-3-3-3-3-3-|-0-3--0-3-||-0-0-0-0-0-0-1-1-1-1-1-1-2-2-2-2-2-2-|-3-3-3-3-3-3-|-0-3--0-3-||-0-0-0-0-0-0-1-1-1-1-1-1-2-2-2-2-2-2-|-3-3-3-3-3-3-|-0-3--0-3-|
|-------------------| |-------------------||-------------------||-0-2-4-2-4-4-2-2-4-||-0-2-4-2-4-4-2-2-4-||-0-2-4-2-4-4-2-2-4-| Play x 4
|-4-4-4-4-4-4-4-4-4-4-4-4-||-7-7-7-7-7-7-7-7-7-7-7-7-||-6-6-6-6-6-6-6-6-6-6-6-6-||-4-4-4-4-4-4-4-4-4-4-4-4-||-4-4-4-4-4-4-4-4-4-4-4-4-||-4-4-4-4-4-4-4-4-4-4-4-4-| Play x 7
Middle 8
|--------------------------------------------------||--------------------------------------------------||--------------------------------------------------||-0-2-4-2-4-4-2-2-4--4-2-2-4--4-2-2-4--4-2-2-4-4-4-| |-0-2-4-2-4-4-2-2-4--4-2-2-4--4-2-2-4--4-2-2-4-4-4-| |-0-2-4-2-4-4-2-2-4--4-2-2-4--4-2-2-4--4-2-2-4-4-4-|
|---------------------------------------------||---------------------------------------------||---------------------------------------------||-0-3--3-5-0-0-3--3-5-0-0-3--3-5-0-0-3--3-5-3-||-0-3--3-5-0-0-3--3-5-0-0-3--3-5-0-0-3--3-5-3-| |-0-3--3-5-0-0-3--3-5-0-0-3--3-5-0-0-3--3-5-3-| Play x 4
|------------------------------------||------------11111111111111111111111-||------------9-9-9-9-9-9-9-9-9-9-9-9-||-6-6-5-5-0-/8-8-8-8-8-8-8-8-8-8-8-8-||-6-6-5-5-0-/8-8-8-8-8-8-8-8-8-8-8-8-||-6-6-5-5-0-/8-8-8-8-8-8-8-8-8-8-8-8-|
Play x 3 1,2,3| 4||-0-0-0-0-0-0-1-1-1-1-1-1-2-2-2-2-2-2-|-3-3-3-3-3-3-|----------||-3-3-3-3-3-3-4-4-4-4-4-4-5-5-5-5-5-5-|-6-6-6-6-6-6-|----------||-2-2-2-2-2-2-3-3-3-3-3-3-4-4-4-4-4-4-|-5-5-5-5-5-5-|----------| |-0-0-0-0-0-0-1-1-1-1-1-1-2-2-2-2-2-2-|-3-3-3-3-3-3-|-0-3--0-5-||-0-0-0-0-0-0-1-1-1-1-1-1-2-2-2-2-2-2-|-3-3-3-3-3-3-|-0-3--0-5-||-0-0-0-0-0-0-1-1-1-1-1-1-2-2-2-2-2-2-|-3-3-3-3-3-3-|-0-3--0-5-|
Outro
|-2-2-2-2-2-2-2-2-2-2-2-2-2-2-2-2-2-2-2-2-2-2-2-2-|-----||-3-3-3-3-3-3-3-3-3-3-3-3-3-3-3-3-3-3-3-3-3-3-3-3-|-----||-2-2-2-2-2-2-2-2-2-2-2-2-2-2-2-2-2-2-2-2-2-2-2-2-|-----||-0-0-0-0-0-0-0-0-0-0-0-0-0-0-0-0-0-0-0-0-0-0-0-0-|-0~~-||-0-0-0-0-0-0-0-0-0-0-0-0-0-0-0-0-0-0-0-0-0-0-0-0-|-0~~-||-0-0-0-0-0-0-0-0-0-0-0-0-0-0-0-0-0-0-0-0-0-0-0-0-|-0~~-| Play x 12
And that is EVERY helmet song tabbed! ok there are live versions, but seeing as no one listens to this band it doesn't matter. As with every other tab I have done contact me if you have any comments about it.
Tap to rate this tab
 
# A B C D E F G H I J K L M N O P Q R S T U V W X Y Z