Hendrix Jimi - Crosstown Traffic tab

                                CROSSTOWN TRAFFIC
                   As recorded by The Jimi Hendrix Experience
                     (From the 1968 Album ELECTRIC LADYLAND)

Words and Music by Jimi Hendrix
Transcribed by www.mikesguitarsite.co.uk

         Bsus4                C#7+9                F#7+9
      x 2 4 4 0 0          x 4 3 4 5 x          x x 4 3 5 5

 Intro
  Q=116
  Bsus4
 4/4
  Gtr II
   |      |  |  |  |  |   |   |  |  |  |  |
   /      /  /  /  /  /   /   /  /  /  /  /

Gtr I|--9------9--9------------------------------||--9------9--9--9--9--9--(9)--9--9--9--9--9-||-11b13==11-11-11-11-11-(11)-11-11-11-11-11-||-------------------------------------------||-------------------------------------------||-------------------------------------------|
| | | | | | | | | | | / / / / / / / / / / /
|----------------------9--9--9-----------|||--9--9--9--(9)--9--9--9--9--9-----------|||-11-11-11-(11)-11-11-11-11-11r-11-11-10-|||----------------------------------------|||----------------------------------------|||----------------------------------------||
C#7+9 F#7+9 | | | | | | | | | | | | | | | || | | | | | / / / / / / / / / / / / / / / // / / / / /
~~~~~~|----------------------------------|----------------------------||-------------------12-------------|----------------------------||-----------11s13------13s11-9-----|-11---9---------------------||------------------------------11--|----------------------------||----------------------------------|----------------------------||----------------------------------|----------------------------|
|
| Gtr III|----------------------------------|----------------------------||----------------------------------|----------------------------||----------------------------------|----------------------------||----------------------------------|-------------2-3-4-2b2.5----||-4-4-----------2-3--4-----2-------|--------2h4--------------4--||------2h4----------------------4--|--2-2-----------------------|
C#7+9 | | | | | | | | | | | / / / / / / / / / / /
|------------------------------------||--------------------12--------------||------------11s13------13s11-9------||-------------------------------11---||------------------------------------||------------------------------------|
|
|------------------------------------||-----5------------------------------||-----4------------------------------||------------------------------------||-4-4------------2-3--4-----2--------||-------2h4----------------------4---|
F#7+9 C#7+9 | | | | || | | | | | | | | | | | | | | | / / / / // / / / / / / / / / / / / / / /
~~~~~~|---------------------------|-----------------------------------||---------------------------|--------------------12-------------||-11---9--------------------|------------11s13------13s11-9-----||---------------------------|-------------------------------11--||---------------------------|-----------------------------------||---------------------------|-----------------------------------|
|
|---------------------------|-----------------------------------||---------------------------|-----5-----------------------------||---------------------------|-----4-----------------------------||-------------2-3-4-2b2.5---|-----------------------------------||--------2h4--------------4-|-4-4------------2-3--4-----2-------||--2-2----------------------|-------2h4----------------------4--|
F#7+9 | | | | || | | | | / / / / // / / / /
~~~~~~|----------------------------||----------------------------||-11---9---------------------||----------------------------||----------------------------||----------------------------|
|
|----------------------------||----------------------------||----------------------------||-------------2-3-4-2b2.5----||--------2h4--------------4--||--2-2-----------------------|
Bsus4 | | | | | | | | | | | | | || | | | | | | | | / / / / / / / / / / / / / // / / / / / / / /
~~~~~~~~~~~~~~~~~~ ~~~~~~~~~|---------------------------|---------------------------------------|||---------------------------|---------------------------------------|||---------------------------|-9-9--9-9-----9--9-(9)----9-9---9------|||---------------------------|-----------------------------------11\-|||---------------------------|---------------------------------------|||---------------------------|---------------------------------------||
|
| ~~~~~~|-0-0-0-0-0-0-(0)-0-0-0---0-|-0----0-0-----0--0--0------------------|||-0-0-0-0-0-0-(0)-0-0-0---0-|-0----0-0-----0--0--0------------------|||-4-4-4-4-4-4-(4)-4-4-4s6-6-|-6s9--9-9s11-11-11-11b13=======11r-----|||---------------------------|---------------------------------------|||---------------------------|---------------------------------------|||---------------------------|---------------------------------------||
Verse 1 & 2 Gtr III||------------|-----------|-----------|-----------|||o-5-5-------|-5-5-------|-5-5-------|-5-5-------|||--4-4-------|-3-3-------|-4-4-------|-3-3-------|||--3-3-------|-4-4-------|-3-3-------|-4-4-------|||o-4-4-------|-----------|-4-4-------|-----------|||------------|-----------|-----------|-----------|
|-----------|-----------|-----------||-3-3-------|-3-3-------|-----------||-2-2-------|-1-1-------|-7-6-------||-1-1-------|-2-2-------|-5-5-------||-2-2-------|-----------|-----------||-----------|-----------|-5-5-------|
Gtr I|-------------------------||-------------------------||-------------------------||-------------------------||-------------------------||-------------------------|
|
| Gtr III|-----------------------0-||-----------------------0-||-6-5-5-5-5-5-(5)-5-5-5---||-4-4-4-4-4-4--4--4-4-4---||-------------------------||-4-4-4-4-4-4-(4)-4-4-4---|
|
|-------------------------||-------------------------||-------------------------||-------------------------||-------------------------||-------------------------|
~~~~~~~~~~~~~~~~~~~~~~~~~~~~~~~~~~~~~~~~~~~~~~~|-----------------------------------------------------------|||---12----12---12-12------12-12-(12)---12-12-12------12b14\-|||-----------------------------------------------------------|||-----------------------------------------------------------|||-----------------------------------------------------------|||-----------------------------------------------------------||
|
|----0-------0--0-(0)---0--0------0-----0--0--0-------------|||----5-------5--5-(5)---5--5------5-----5--5--5-------------|||-4h=6-------6--6-(6)---4--6------6-----4--4--4-------------|||-----------------------------------------------------------|||-----------------------------------------------------7\----|||-----------------------------------------------------------||
|
| ~~~~~~~~~~~~~~~~~~~~~~~~~~~~~~~~~~~~~~~~~~~~~~~|-----------------------------------------------------------|||---12------------12-------------12----------12-------------|||---11b13---------11b13----------11b13-------11b13==(11)r\--|||-----------------------------------------------------------|||-----------------------------------------------------------|||-----------------------------------------------------------||
Chorus C#7+9 F#7+9 Gtr II | | | | || | | | | | | | | | | | | | | | | / / / / // / / / / / / / / / / / / / / / /
Gtr I|----------------------|--------------------------------------||----------------------|-------------12-----------------------||----------------------|-----11s13-------13s11-9----11-----9--||----------------------|-------------------------11-----------||----------------------|--------------------------------------||----------------------|--------------------------------------|
|
| Gtr III|----------------------|--------------------------------------||----------------------|--------------------------------------||----------------------|--------------------------------------||----------------------|---------------------2-3--4--2b2.5----||-4-4-------2-3-4-2----|-----------2h=4--------------------4--||------2h4----------4--|-2-2----------------------------------|
C#7+9 | | | | || | | | | | / / / / // / / / / /
|----------------------------||----------------------------||----------------------------||-11p9-----------------------||------11--------------------||----------------------------|
|
|----------------------------||---------5------------------||---------4------------------||----------------------------||--4----4--------2-3-4-2-----||-----------2h4----------4---|
F#7+9 C#7+9 F#7+9 | | | | || | | | | | | | | || | | | | | | | | | || | | | | / / / / // / / / / / / / / // / / / / / / / / / // / / / /
|-------------------------|-----------------------|-------------------------||-------------------------|-----5-----------------|-------------------------||-------------------------|-----4-----------------|-------------------------||-----------2-3-4-2b2.5---|-----------------------|-----------2-3-4-2b2.5---||------2h4--------------4-|-4-4--------2-3-4-2----|------2h4--------------4-||-2-2---------------------|-------2h4----------4--|-2-2---------------------|
1. Bsus4 Gtr II | | | | | | | | | | | | / / / / / / / / / / / /
Gtr I|---------------------------------------||---------------------------------------||---------------------------------------||---------------------------------------||---------------------------------------||---------------------------------------|
|
| Gtr III|--0--0--0--0--0--0--(0)--0--0--0--0--0-||--0--0--0--0--0--0--(0)--0--0--0--0--0-||-11-11-11-11-11-11-(11)-11-11-11-11-11-||---------------------------------------||---------------------------------------||---------------------------------------|
| | | | | | | | | | | / / / / / / / / / / /
~~~~~~~~~~~~~~~~~~~ ~~~~~~~~~~~~~|-------------------------------------------------|||------------------------------------------------o|||-----9--9---9--9---9--9-(9)--9-----9---9---(9)\--|||-------------------------------------------------|||------------------------------------------------o|||-------------------------------------------------||
|
| ~~~~~~|-----0--0---0--0---0--0--0---0-------------------|||-----0--0---0--0---0--0--0---0------------------o|||-11s13-13--13-13--13-13-13--13b16=====13r-(13)\--|||-------------------------------------------------|||------------------------------------------------o|||-------------------------------------------------||
Guitar Break 2.|--------------------------------|-------------------------------|||--------------------------------|-12-12-------------------------|||--------------------------------|-------------------------------|||--------------------------------|-------------------------------|||--------------------------------|-------------------------------|||--------------------------------|-------------------------------||
|
|---10---------------------------|-------7-7-(7)-7-7-------------|||--------------------------------|-------------------------------|||---10---10---10-(10)---10-9-9-8-|-------7-7-(7)-7-7-6-6-6-6-(5)-|||----9----9----9--(9)----9-8-8-7-|-------6-6-(6)-6-6-5-5-5-5--4--|||--------------------------------|-------------------------------|||-9----9----9---------9----------|--7------------------5-5-5--4--||
~~~~~~|---------------------|---------------------------||--------7-(7)-9-7----|---------------------------||-----/8-----------8\-|-------6b8-----6b8---6p4---||---------------------|-----6-------------------6-||---------------------|---------------------------||---------------------|---------------------------|
|
|---------------------|---------------------------||----------------6----|-------6-------------6---4-||------5-5-------6-4--|-4b5---6-----4h5-----6---4-||------4-4------------|---------------------------||---------------------|---------------------------||-4-4-------4--4------|-----4-----4-------4-------|
~~~~~~~~~~~~|-------------------------------||-------7b9-7b9====(7)r---------||-------------------------------||-------------------------------||-------------------------------||-------------------------------|
|
|-------------------------------||-------6-----------------6-----||-4b5---6--------4h=5-----6-----||-------------------------------||-------------------------------||-----4-----4-----------4---4-4-|
Gt Gtr II|-------------------------------------------------------|||-/15---15-15---15-15-15-15---15-15---15-15---15-15-----|||-/16---16-16---16-16-16-16---16-16---16-16---16-16-----|||-------------------------------------------------------|||-------------------------------------------------------|||-------------------------------------------------------||
|
| Gtr I|-------------------------------------------------------|||---7b9-----7b9-----7-----------------------------------|||-------------------------6b8-----6b8-----6b8-----6p4---|||-----------------------------------------------------6-|||-------------------------------------------------------|||-------------------------------------------------------||
|
| Gtr III|-------------------------------------------------------|||-------------------------------------------------------|||-------------------------------------------------------|||-------------------------------------------------------|||-------------------------------------------------------|||---4-------4-------5-----5-------5-------5-------5---0-||
Out-Chorus C#7+9 F#7+9 r II | | | | | | | | | | | | | | | || | | | | / / / / / / / / / / / / / / / // / / / /
|----------------------------------|-------------------------------------||----------------------------------|-------------------------------------||----------------------------------|-------------------------------------||----------------------------------|-------------------------------------||----------------------------------|-------------------------------------||----------------------------------|-------------------------------------|
|
| ~|----------------------------------|-------------------------------------||-------------------12-------------|-------------------------------------||-----------11s13------13s11p9-----|-11b13==(11)r-9----------------------||------------------------------11--|-------------------------------------||----------------------------------|-------------------------------------||----------------------------------|-------------------------------------|
|
|----------------------------------|-------------------------------------||-5-5------------------------------|-------------------------------------||-4-4------------------------------|-------------------------------------||-3-3------------------------------|-------------------------------------||-4-4-----------2-3--4-----2-------|---------------------2-3-4-2b2.5-----||------2h4----------------------4--|--2-------2-----2h4--------------4---|
Bsus4 Gtr II | | | | | | | | | | | | | | | | | | | | | | | / / / / / / / / / / / / / / / / / / / / / / /
Gtr I|----------------------------------|----------------------------------||-12-12-12-12----------------------|----------------------------------||-------------9-9-(9)-9-9----------|---------------------9b9.5-9b9.5==||-------------------------11-11-11-|-9-9-9-(9)-9-9-9-9-9--------------||----------------------------------|----------------------------------||----------------------------------|----------------------------------|
|
| Gtr III|--0--0--0--0-0-0-(0)-0-0--0--0--0-|-0-0-0-(0)-0-0-0-0-0-0------------||--0--0--0--0-0-0-(0)-0-0--0--0--0-|-0-0-0-(0)-0-0-0-0-0-0------------||--4--4--4--4-4-4-(4)-4-4--4--4--4-|-4-4-4-(4)-4-4-4-4-4-4------------||----------------------------------|----------------------------------||----------------------------------|---------------------------x\-----||----------------------------------|----------------------------------|
C#7+9 | | | | | | | | | | | / / / / / / / / / / /
|-------------------------------------||-----------------------12-12s14-12---||-(9)r\---------11s13-----------------||-------------------------------------||-------------------------------------||-------------------------------------|
|
|-------------------------------------||-------------------------------------||-------------------------------------||--3----3-----------------------------||--4----4-----------2-3--4-----2------||----------2h4--------------------4---|
F#7+9 Bsus4 | | | | || | | | | | | | | | | | | | | | / / / / // / / / / / / / / / / / / / / /
~~|---------------------------|------------------------------------------||---------------------------|-12-12-12-12-12-12b14==(12)-12-12-12r\----||-13---11\------------------|------------------------------------------||---------------------------|------------------------------------------||---------------------------|------------------------------------------||---------------------------|------------------------------------------|
|
|-------------------------0-|--0--0--0--0--0--0------(0)--0--0---------||-------------------------0-|--0--0--0--0--0--0------(0)--0--0---------||---------------------------|--4--4--4--4--4--4------(4)--4--4---------||---------------------------|------------------------------------------||---------------2-3-4-2h4---|-----------------------------------5\--x\-||--2-2-----2h4--------------|------------------------------------------|
C#7+9 | | | | | | | | | | | / / / / / / / / / / /
~~|-----------------------------------||-------12----14--------------------||-11s13-----------13s11p9----11-9---||-------------------------11--------||-----------------------------------||-----------------------------------|
|
|-----------------------------------||-----------------------------------||-----------------------------------||----/3--3--------------------------||----/4--4------------2-3--4--2-----||-----------2h=4----------------4---|
F#7+9 | | | | || | | | | / / / / // / / / /
~~|-----------------------------||-----------------------------||-11b13---11------------------||-----------------------------||-----------------------------||-----------------------------|
|
|---------------------------0-||---------------------------0-||-----------------------------||-----------------------------||-----------------2-3-4-2h4---||--2----2----2h4--------------|
Bsus4 | | | | | | | | | | | | / / / / / / / / / / / /
|--------------------------------------------------------||--------------------------------------------------------||-11-11b13-11-11b13-11-11b13==(11)r-11-11b13-11-11b13-11-||--------------------------------------------------------||--------------------------------------------------------||--------------------------------------------------------|
|
|--0--0-----0--0-----0--0------(0)---0--0-----0--0-----0-||--0--0-----0--0-----0--0------(0)---0--0-----0--0-----0-||--4--4-----4--4-----4--4------(4)---4--4-----4--4-----4-||--------------------------------------------------------||--------------------------------------------------------||--------------------------------------------------------|
| | | | | | | | | | | / / / / / / / / / / /
|---------------------------------------------------||------------------------12-------------------------||--11b13-11-11b13==(11)-----11r(11)p9------11--9b10-||-------------------------------------11------------||---------------------------------------------------||---------------------------------------------------|
|
| ~~~~~~~~~~~~~~~~~~~~~|---0-----0--0------(0)---0------0-----0------------||---0-----0--0------(0)---0------0-----0------------||-/16----16-16b18==(16)--16-----16----16r-----------||---------------------------------------------------||-------------------------------------------x\------||---------------------------------------------------|
C#7+9 F#7+9 | | | | || | | | | | | | | | || | | | | | / / / / // / / / / / / / / / // / / / / /
|-------------------------------|-------------------------------*||---------------------------12--|-------------------------------*||---------------------11s13-----|-11-11-13---9------11s13-9-----*||-------------------------------|-------------------------------*||-(11)\-------------------------|-------------------------------*||-------------------------------|-------------------------------*|
|
|-------------------------------|-------------------------------*||-------------------------------|-------------------------------*||-------------------------------|--3--3-------------------------*||-------3-----------------------|--4--4-------------------------*||---4---4-------2-3-4-----2-----|---------------2-3-----4-2-----*||----------2h4---------------4--|----------2h4--------------4---*|
*************************************************************************************** * Generated using Power Tab Editor by Brad Larsen - http://powertab.guitarnetwork.org * ***************************************************************************************
Tap to rate this tab
 
# A B C D E F G H I J K L M N O P Q R S T U V W X Y Z