Henry Cow – Living In The Heart Of The Beast tab

Album: In Praise of Learning

You're probably wondering which solo this is. Well, this
is the solo at 10:08 on the original mix. (Might be different
on the remastered one I dunno.)

It seems to change time signatures, but I do not know
what they are. Getting the notes to this was difficult
enough! But you'll probably get the time within a few
listens.

--------------------------------------------------|--------------------------------------------------|----7-------------6-9-5-----6-0-------------------|-8-7-8-8-8h9-8-8-9-----7-8-8-9-8-6----------------|--7-------------------------------7-10------------|--------------------------------------9-8-8-8h9-8-|
---------------------------------------------------|------------------------------------------------10-|--------6-4-0---------------------------------11---|-----5-8-----8-6--------------------8-11-11-12-----|----6-----------7-10--------------10---------------|-8-9----------------9-8-8h9-8-9-11-----------------|
--------------------------------------------------|-11-10-11-10-----11-9-----8-----------------------|---------------------8-9-8--------9-10-9----9-----|------------12-11----------10-9-10------10-9-10-9-|--------------------------------------------------|--------------------------------------------------|
-------------------------------------------------|-------------------------------------------------|------------------------------------8-8-12-11-12-|-8-7-----8-9-8---8-11-9--8-----------------------|----9-8-9-----9-8------10-10-7-10----------------|---------------------------------9-8-8-----------|
-------------------------------------------------|-12-13-12-----11-14-12--11-----------------------|---------12-11--------12--13--12--------13-15-13-|----------------------------13--13-11-13---------|-------------------------------------------------|-------------------------------------------------|
------9-11-9----------11--10-----8-10-8----------|------------11-9---8--------9-8-9------9-------9-|----------------8-9---------------------10-9-10--|-13-11--------------10--10-----------------------|-------------------------------------------------|-------------------------------------------------|
-10-8--11-14-13-11-------------------------------|-----11-----------14-12-11-----------------------|--------------------------13-12-----9-8-9-8------|-------------------------------14-13-------11-10-|-------------------------------------------------|-------------------------------------------------|
(enjoy this hammer on/pull off part, it's the only break you get!!!)--------------------------------------------------|---------8-9--------------------------------------|---8-9-10------------------------------8-10-8-----|-11---------10p8h10p8h10p8h10p8-10-9-10------10-9-|--------------------------------------------------|--------------------------------------------------|
----------------------------------------8-10------|--------------------------11----------------13-12-|---------------12-10-12-13--13-12-10-8-7----------|-8----------8-9-----------------------------------|--11-8-10-11--------------------------------------|--------------------------------------------------|
---13-14-11---------------------------------------|-15--------15--------12-13-14-11-------------16---|-------------12-11-12-----------12-11-------------|-------------------------------------14-13-14--14-|--------------------------------------------------|--------------------------------------------------|
-19----------|---20--------|-----20-19---|----------21-|-------------|-------------|
Good luck! Ultimate guitar, there is no official website but a facebook, a myspace, and a youtube video. I'll give you it all. http://www.facebook.com/group.php?gid=2207469631 http://www.myspace.com/henrycow.html http://www.youtube.com/watch?v=EskFhrd1NCQ
Please rate this tab:
x1.0