Here I Come Falling – Put The City To The Sword tab

http://www.myspace.com/hicf

Here I Come Falling - Put The City To The Sword
Tabbed by: Billybusa (Me)
Tunings: Drop D

Clean intro:

E||--5----------------|--5----------------|B||--5----------------|--5----------------|G||--7----------------|--7----------------|D||--7----------------|--7----------------|A||--5----------------|--5----------------|D||-------------------|-------------------|
-------------------|-----------0--------|--1----------------|--1--------1--------|--2----------------|--2--------2--------|--2----------------|--2--------2--------|--0----------------|--0--------0--------|-------------------|--------------------|
Distorted main riff (x2):|-----------------------------------------------||--12h-13p12------------------------------------||-------------12h14p0-10h12p0-------------------||------------------------------12h14p12-9h10-x--||-----------------------------------------------||-----------------------------------------------|
|-----------------------------------------------||--12h-13p12----------------------------<12>----||-------------12h14p0-10h12p0-------------------||------------------------------12h14p12---------||-----------------------------------------------||-----------------------------------------------|
|-----------------------------------------------||--12h-13p12------------------------------------||-------------12h14p0-10h12p0-------------------||------------------------------12h14p12-9h10-x--||-----------------------------------------------||-----------------------------------------------|
|---------15-------15-------------------12h13h15p12-------------12h13-||--12h-13----12h13----12h13-12h13p12h15-------------12h13p12h15-------||---------------------------------------------------------------------||---------------------------------------------------------------------||---------------------------------------------------------------------||---------------------------------------------------------------------|
First breakdown (x4):|-----------------------------||-----------------------------||-----------------------------||-----8--7--0--3--5-----------||-----8--7--0--3--5----0-0-0--||-----8--7--0--3--5----0-0-0--|
|-------------------------------||-------------------------------||-------------------------------||-------------------------------||--------0-0-0----0-0-0---------||--------0-0-0----0-0-0---------|
|--------------------------------||--------------------------------||--------------------------------||--------------------------------||----0-0-0-----0-0-0-------0-0-0-||----0-0-0-----0-0-0-------0-0-0-|
Chorus:|----------------------------------||----------------------------------||----------------------------------||--0-0-0-0-0-0-0-0-0-0-0-0-0-0-0-0-||--0-0-0-0-0-0-0-0-0-0-0-0-0-0-0-0-||--0-0-0-0-0-0-0-0-0-0-0-0-0-0-0-0-|
|----------------------------------||----------------------------------||----------------------------------||--3-3-3-3-3-3-3-3-3-3-3-3-3-3-3-3-||--3-3-3-3-3-3-3-3-3-3-3-3-3-3-3-3-||--3-3-3-3-3-3-3-3-3-3-3-3-3-3-3-3-|
|--------------------------------------------------||--------------------------------------------------||--------------------------------------------------||--10-10-10-10-10-10-10-10-10-10-10-10-10-10-10-10-||--10-10-10-10-10-10-10-10-10-10-10-10-10-10-10-10-||--10-10-10-10-10-10-10-10-10-10-10-10-10-10-10-10-|
|----------------------------------||----------------------------------||----------------------------------||--5-5-5-5-5-5-5-5-5-5-5-5-5-5-5-5-||--5-5-5-5-5-5-5-5-5-5-5-5-5-5-5-5-||--5-5-5-5-5-5-5-5-5-5-5-5-5-5-5-5-|
|-------------------||-------------------||-------------------||--8--7--0--3--5----||--8--7--0--3--5----||--8--7--0--3--5----|
Tremolo pick these chords:|-------------------|---------------------||-------------------|---------------------||--7----------------|--10--------9--------||-------------------|---------------------||--5----------------|---8--------7--------||-------------------|---------------------|
|--------------------|--------------------||--------------------|--------------------||--17----------------|--12----------------||--------------------|--------------------||--15----------------|--10----------------||--------------------|--------------------|
|--------------------|---------------------||--------------------|---------------------||--15----------------|--17--------9--------||--------------------|---------------------||--13----------------|--15--------7--------||--------------------|---------------------|
|-------------------||-------------------||--7----------------||-------------------||--5----------------||-------------------|
|--------------------------------------||--------------------------------------||--10----12----14----15----14----12----||--------------------------------------||---8----10----12----13----12----10----||--------------------------------------|
|--------------------|--------------------||--------------------|--------------------||--10----------------|--15----------------||--------------------|--------------------||---8----------------|--13----------------||--------------------|--------------------|
|---------------------|-------------------||---------------------|-------------------||--17--------9--------|--7----------------||---------------------|-------------------||--15--------7--------|--5----------------||---------------------|-------------------|
|-----------------------------------||-----------------------------------||--7----9----10----12----10----9----||-----------------------------------||--5----7-----8----10-----8----7----||-----------------------------------|
Second breakdown:|------------------------|-------------------------||------------------------|-------------------------||------------------------|-------------------------||------------------------|-------------------------||--0----0-------0-----0--|--5-7-8--7--8--10--8-7-5-||--0----0-------0-----0--|-------------------------|
x2|------------------------|-------------------||------------------------|-------------------||------------------------|--------------5----||------------------------|--------------5----||--0----0-------0-----0--|--8--5-------------||--0----0-------0-----0--|--------0--0-------|
|------------------------|-------------------------||------------------------|-------------------------||------------------------|-------------------------||------------------------|-------------------------||--0----0-------0-----0--|--5-7-8--7--8--10--8-7-5-||--0----0-------0-----0--|-------------------------|
x2------------------------|-------------------------|------------------------|-------------------------|------------------------|-------------------------|------------------------|--------------<5>--------|--0----0-------0-----0--|--8--5-------------------|--0----0-------0-----0--|--------0--0-------------|
|------------------------|-------------------------||------------------------|-------------------------||------------------------|-------------------------||------------------------|-------------------------||--0----0-------0-----0--|--5-7-8--7--8--10--8-7-5-||--0----0-------0-----0--|-------------------------|
------------------------|-------------------------|------------------------|-------------------------|------------------------|-------------------------|------------------------|-------------------------|--0----0-------0-----0--|--8--5--------12\--------|--0----0-------0-----0--|--------0--0--12\--------|
Second breakdown, 2nd part: *Open chugging*
Lead Guitar in the second part of the breakdown:|-----------------------||-----------------------||-----------------------||--0h2--x--2h3--x--3h5--||-----------------------||-----------------------|
|-----------------------||-----------------------||-------------8p7-------||--x--5/7--x-------8----||-----------------------||-----------------------|
|-----------------------||-----------------------||-----------------------||--0h2--x--2h3--x--3h5--||-----------------------||-----------------------|
|------------------------||------------------------||-------------10p8p7-----||--x--5/7--x----------7--||------------------------||------------------------|
|-----------------------||-----------------------||-----------------------||--0h2--x--2h3--x--3h5--||-----------------------||-----------------------|
|-----------------------||-----------------------||-------------8p7-------||--x--5/7--x-------8----||-----------------------||-----------------------|
|-----------------------||-----------------------||-----------------------||--0h2--x--2h3--x--3h5--||-----------------------||-----------------------|
|-----------------------||-----------------------||-------------8p7-------||--x--5/7--x-------8p7--||-----------------------||-----------------------|
|-------------------|-------------------||-------------------|-------------------||-------------------|-------------------||--5----------------|--8----------------||--5----------------|--8----------------||--5----------------|--8----------------|
|-------------------|-------------------||-------------------|-------------------||-------------------|-------------------||--0----------------|--5----------------||--0----------------|--5----------------||--0----------------|--5----------------|
|-------------------|-------------------||-------------------|-------------------||-------------------|-------------------||--8----------------|--0----------------||--8----------------|--0----------------||--8----------------|--0----------------|
Semi-clean part: |----------------------||--5----5----5----5----||--5----5----5----5----||--0----0----0----0----| x3|--0----0----0----0----||----------------------|
|----------------------||-----------------6----||----------------------||--3----3----x---------||--3----3----x---------||--3----3----x---------|
|----------------------||--5----5----5----5----||--5----5----5----5----||--0----0----0----0----| x3|--0----0----0----0----||----------------------|
|----------------------||----------------------||----------------------||--3----3----3----3----||--3----3----3----3----||--3----3----3----3----|
|----------------------||--5----5----5----5----||--5----5----5----5----||--0----0----0----0----| x3|--0----0----0----0----||----------------------|
|----------------------||----------------------||----------------------||--3----3----3----3----||--3----3----3----3----||--3----3----3----3----|
|--------------------------||--------------------------||--------------------------||--7--7--7--7--7--7--7--7--| x2|--x--x--x--x--x--x--x--x--||--7--7--7--7--7--7--7--7--|
|--------------------------||--------------------------||--------------------------||--9--9--9--9--9--9--9--9--| x2|--x--x--x--x--x--x--x--x--||--9--9--9--9--9--9--9--9--|
|----------------------------------||----------------------------------||----------------------------------||--10--10--10--10--10--10--10--10--| x4|---x---x---x---x---x---x---x---x--||--10--10--10--10--10--10--10--10--|
|--------------------------||--------------------------||--------------------------||--7--7--7--7--7--7--7--7--| x2|--x--x--x--x--x--x--x--x--||--7--7--7--7--7--7--7--7--|
|--------------------------||--------------------------||--------------------------||--5--5--5--5--5--5--5--5--| x2|--x--x--x--x--x--x--x--x--||--5--5--5--5--5--5--5--5--|
|--------------------------||--------------------------||--------------------------||--3--3--3--3--3--3--3--3--| x4|--x--x--x--x--x--x--x--x--||--3--3--3--3--3--3--3--3--|
Outro:|----------------------||--5----5----5----5----||--5----5----5----5----||--0----0----0----0----| x2|--0----0----0----0----||----------------------|
|----------------------|-----------3--------||--5----5----5----5----|--------------------||--5----5----5----5----|--------------------||--0----0----0----0----|--2-----------------||--0----0----0----0----|--------------------||----------------------|--------------------|
Repeat for the rest of the song:|----------------------||--5----5----5----5----||--5----5----5----5----||--0----0----0----0----| x3|--0----0----0----0----||----------------------|
|----------------------||----------------------||----------------------||--3----3----3----3----||--3----3----3----3----||--3----3----3----3----|
Please rate this tab:
x1.0