Hermetica - Evitando El Ablande tab

           Hermetica - Evitando el ablande


 Transcripcion de:floods_of_metal@hotmail.com

E||--------------------------|-------------------|---------------------|B||--------------------------|-------------------|---------------------|G||--------------------------|-------------------|---------------------|D||-----------5-----------5--|-------------------|---------------------|A||-----------3-----------3--|--4----------------|-----------------0---|E||--3--2--0-----3--2--0-----|--2----------------|---------2---3-------|
|-----------------------------------|----------------------------------||-----------------------------------|----------------------------------||*----------------------------------|----------------------------------||*----------------------------------|----------------------------------||-----------------------------------|----------------------------------||---0-0-0-0-0-0-0-0-0-0-0-0-0-0-0-0-|--0-0-0-0-0-0-0-0-0-0-0-0-0-0-0-0-|
--------------------|---------------------||----------------------------------|--------------------|---------------------||----------------------------------|--------------------|--------------------*||----------------------------------|------5-------------|------5-------------*||----------------------------------|--3---3-------------|--3---3--------------||----------------------------------|--2-----------------|--2------------------||--0-0-0-0-0-0-0-0-0-0-0-0-0-0-0-0-|
----------------------------------|--------------------|--------------------|----------------------------------|--------------------|--------------------|----------------------------------|--------------------|--------------------|----------------------------------|------5-------------|------5-------------|----------------------------------|--3---3-------------|--3---3-------------|--0-0-0-0-0-0-0-0-0-0-0-0-0-0-0-0-|--2-----------------|--2-----------------|
----------------------------------|----------------------------------|----------------------------------|----------------------------------|----------------------------------|----------------------------------|----------------------------------|----------------------------------|----------------------------------|----------------------------------|--0-0-0-0-0-0-0-0-0-0-0-0-0-0-0-0-|--0-0-0-0-0-0-0-0-0-0-0-0-0-0-0-0-|
--------------------|--------------------|----------------------------|--------------------|--------------------|----------------------------|--------------------|--------------------|----------------------------|------5-------------|------5-------------|----------------------------|--3---3-------------|--3---3-------------|--4--------------4---4---4--|--2-----------------|--2-----------------|--2--2-2-2-2-2-2-2---2---2--|
----------------------------|----------------------------|----------------------------|----------------------------|----------------------------|----------------------------|----------------------------|----------------------------|--5--------------7---7---7--|----------------------------|--3--3-3-3-3-3-3-5---5---5--|--3-3--2-2--3-3--2-2--3--2--|
----------------------------|----------------------------|----------------------------|----------------------------|----------------------------|----------------------------|----------------------------|----------------------------|----------------------------|--4--------------4---4---4--|--3-3--2-2--3-3--2-2--3--2--|--2--2-2-2-2-2-2-2---2---2--|
----------------------------|----------------------------|----------------------------|----------------------------|----------------------------|----------------------------|----------------------------|----------------------------|--5--------------7---7---7--|----------------------------|--3--3-3-3-3-3-3-5---5---5--|--3-3--2-2--3-3--2-2--3--2--|
----------------------------|----------------------------------|----------------------------|----------------------------------|----------------------------|----------------------------------|----------------------------|----------------------------------|----------------------------|----------------------------------|--3-3--2-2--3-3--2-2--3--2--|--0-0-0-0-0-0-0-0-0-0-0-0-0-0-0-0-|
----------------------------------|--------------------|--------------------|----------------------------------|--------------------|--------------------|----------------------------------|--------------------|--------------------|----------------------------------|------5-------------|------5-------------|----------------------------------|--3---3-------------|--3---3-------------|--0-0-0-0-0-0-0-0-0-0-0-0-0-0-0-0-|--2-----------------|--2-----------------|
----------------------------------|----------------------------------|----------------------------------|----------------------------------|----------------------------------|----------------------------------|----------------------------------|----------------------------------|----------------------------------|----------------------------------|--0-0-0-0-0-0-0-0-0-0-0-0-0-0-0-0-|--0-0-0-0-0-0-0-0-0-0-0-0-0-0-0-0-|
--------------------|--------------------|----------------------------|--------------------|--------------------|----------------------------|--------------------|--------------------|----------------------------|------5-------------|------5-------------|----------------------------|--3---3-------------|--3---3-------------|--4--------------4---4---4--|--2-----------------|--2-----------------|--2--2-2-2-2-2-2-2---2---2--|
----------------------------|----------------------------|----------------------------|----------------------------|----------------------------|----------------------------|----------------------------|----------------------------|--5--------------7---7---7--|----------------------------|--3--3-3-3-3-3-3-5---5---5--|--3-3--2-2--3-3--2-2--3--2--|
----------------------------|----------------------------|----------------------------|----------------------------|----------------------------|----------------------------|----------------------------|----------------------------|----------------------------|--4--------------4---4---4--|--3-3--2-2--3-3--2-2--3--2--|--2--2-2-2-2-2-2-2---2---2--|
----------------------------|----------------------------|----------------------------|----------------------------|----------------------------|----------------------------|----------------------------|----------------------------|--5--------------7---7---7--|----------------------------|--3--3-3-3-3-3-3-5---5---5--|--3-3--2-2--3-3--2-2--3--2--|
----------------------------|----------------------|---------------------------|----------------------------|----------------------|---------------------------|----------------------------|----------------------|---------------------------|----------------------------|--9----9----5----7----|---------------------------|----------------------------|--7----7----3----5----|--5-5-5-5-5-5--------------|--3-3--2-2--3-3--2-2--3--2--|----------------------|--------------3---2---3----|
----------------------|---------------------------|----------------------|----------------------|---------------------------|----------------------|----------------------|---------------------------|----------------------|--9----9----5----7----|---------------------------|--9----9----5----7----|--7----7----3----5----|--5-5-5-5-5-5--------------|--7----7----3----5----|----------------------|--------------3---2---3----|----------------------|
---------------------------|----------------------|---------------------------|---------------------------|----------------------|---------------------------|---------------------------|----------------------|---------------------------|---------------------------|--9----9----5----7----|---------------------------|--5-5-5-5-5-5--------------|--7----7----3----5----|--5-5-5-5-5-5--------------|--------------3---2---3----|----------------------|--------------3---2---3----|
------------------|--------------------------|-------------------|------------------|--------------------------|-------------------|------------------|--------------------------|-------------------|------------------|-----------------------5--|--------------4----|------------------|--------------2--3--5--3--|--------------2----|------------------|--0--2--3--5--------------|-------------------|
---------------------|------------------|--------------------------|---------------------|------------------|--------------------------|---------------------|------------------|--------------------------|---------------------|------------------|-----------------------5--|----------------2----|------------------|--------------2--3--5--3--|------3----2----0----|------------------|--0--2--3--5--------------|
-------------------|---------------------|------------------|-------------------|---------------------|------------------|-------------------|---------------------|------------------|--------------4----|---------------------|------------------|--------------2----|----------------2----|------------------|-------------------|------3----2----0----|------------------|
--------------------------|-------------------|---------------------|--------------------------|-------------------|---------------------|--------------------------|-------------------|---------------------|-----------------------5--|--------------4----|---------------------|--------------2--3--5--3--|--------------2----|----------------2----|--0--2--3--5--------------|-------------------|------3----2----0----|
------------------|--------------------------|-------------------|------------------|--------------------------|-------------------|------------------|--------------------------|-------------------|------------------|-----------------------5--|--------------4----|------------------|--------------2--3--5--3--|--------------2----|------------------|--0--2--3--5--------------|-------------------|
---------------------|------------------|-----------------|---------------------|------------------|-----------------|---------------------|------------------|------------2----|---------------------|------------------|--2----4----2----|----------------2----|------------------|--2----4----0----|------3----2----0----|------------------|--0----2---------|
Solo|-----------------------------------------------------------||---12t8h5-12t8h5-12t8h5-12t8h5-13t8h5-13t8h5-13t8h5-13t8h5-||*----------------------------------------------------------||*----------------------------------------------------------||-----------------------------------------------------------||-----------------------------------------------------------|
----------------------------------------------------------|--12t7h4-12t7h4-12t7h4-12t7h4-12t8h5-12t8h5-12t8h5-12t8h5-|----------------------------------------------------------|----------------------------------------------------------|----------------------------------------------------------|----------------------------------------------------------|
----------------------------------------------------------|----------------------------------------------------------|--12t9h5-12t9h5-12t9h5-12t9h5-14t9h5-14t9h5-14t9h5-14t9h5-|----------------------------------------------------------|----------------------------------------------------------|----------------------------------------------------------|
-----------------------------------------------------------||-----------------------------------------------------------||--11t8h4-11t8h4-11t8h4-11t8h4-11t8h4-11t8h4-11t8h4-11t8h4-*||----------------------------------------------------------*||-----------------------------------------------------------||-----------------------------------------------------------||
-----------------------|-------------------------|---------------------------|--7/8--7---8--5~-------|--10b-----10-8-10~-------|--7/8--7--8--10~--8--7--8--|-----------------------|-------------------------|---------------------------|-----------------------|-------------------------|---------------------------|-----------------------|-------------------------|---------------------------|-----------------------|-------------------------|---------------------------|
-------------------------|--------------------------------|--7h8h7----------10b-----|--10-8-7------7-8-10-10h8-7-----|--------7--9~------------|---------9-------------------9--|-------------------------|--------------------------------|-------------------------|--------------------------------|-------------------------|--------------------------------|
--7------------------------|--10-8-7----8-7------7----------------|-----------10-8-10-8-7-----|---------10-----10-8---10-8-7---8-7---|-----------------------9~--|------------------------------9-----9-|---------------------------|--------------------------------------|---------------------------|--------------------------------------|---------------------------|--------------------------------------|
--------------------|----------------------|---------------------------|--------------------|----------------------|---------------------------|--7-9~--------------|----------------------|---------------------------|--------------------|--9----9----5----7----|---------------------------|--------------------|--7----7----3----5----|--5-5-5-5-5-5--------------|--------------------|----------------------|--------------3---2---3----|
----------------------|---------------------------|----------------------|----------------------|---------------------------|----------------------|----------------------|---------------------------|----------------------|--9----9----5----7----|---------------------------|--9----9----5----7----|--7----7----3----5----|--5-5-5-5-5-5--------------|--7----7----3----5----|----------------------|--------------3---2---3----|----------------------|
---------------------------|----------------------|---------------------------|---------------------------|----------------------|---------------------------|---------------------------|----------------------|---------------------------|---------------------------|--9----9----5----7----|---------------------------|--5-5-5-5-5-5--------------|--7----7----3----5----|--5-5-5-5-5-5--------------|--------------3---2---3----|----------------------|--------------3---2---3----|
----------------------|---------------------------|----------------------|----------------------|---------------------------|----------------------|----------------------|---------------------------|----------------------|--9----9----5----7----|---------------------------|--9----9----5----7----|--7----7----3----5----|--5-5-5-5-5-5--------------|--7----7----3----5----|----------------------|--------------3---2---3----|----------------------|
---------------------------|----------------------|---------------------------|---------------------------|----------------------|---------------------------|---------------------------|----------------------|---------------------------|---------------------------|--9----9----5----7----|---------------------------|--5-5-5-5-5-5--------------|--7----7----3----5----|--5-5-5-5-5-5--------------|--------------3---2---3----|----------------------|--------------3---2---3----|
----------------------|---------------------------|------------------|----------------------|---------------------------|------------------|----------------------|---------------------------|------------------|--9----9----5----7----|---------------------------|------------------|--7----7----3----5----|--5-5-5-5-5-5---------2----|------------------|----------------------|--------------3---2---0----|------------------|
--------------------------|-------------------||--------------------------|-------------------||--------------------------|-------------------||-----------5-----------5--|-------------------||-----------3-----------3--|--4----------------||--3--2--0-----3--2--0-----|--2----------------||
Tap to rate this tab
 
# A B C D E F G H I J K L M N O P Q R S T U V W X Y Z