Hey Monday - Candles chords

Candles by Hey Monday

Kappa By Raichu

Add me sa facebook:thunderraichu@yahoo.com

analyze nyo lang mabuti..medyo mahirap

Intro:

:----------------------------------------------------3--~:--8---8---10---8---7---7---8---7---5---5---7---8----3--~:----7---7----7---7---7---7---7---7---7---7---7---7-----~:----------------------------------------------------x--~:----------------------------------------------------3--~:-------------------------------------------------------~
Verse:
:----------------------------------------------|:--10\12-10-8-------10\12-10-8----9~-----------|:-------------11-9~------------11--------------|:----------------------------------------------|:----------------------------------------------|:----------------------------------------------|
:----------------------------------------------|:--10\12-10-8------------------------10\12-10~-|:-------------11--9--7-7---7-7-7-7-7-----------|:----------------------------------------------|:----------------------------------------------|:----------------------------------------------|
:----------------------------------------------|:--10\12-10-8-------10\12-10-8----9~-----------|:-------------11-9~------------11--------------|:----------------------------------------------|:----------------------------------------------|:----------------------------------------------|
:---------------------------------------------------|:--10\12-10-8------------------------10\12-8-10~-8~-|:-------------11--9--7-7---7-7-7-7-7----------------|:---------------------------------------------------|:---------------------------------------------------|:---------------------------------------------------|
:--10-----------|:-----10-8-7-10-|:---------------|:---------------|:---------------|:---------------|
chorus:
:--10-10-8-7~---10-10-8-7------------------------------|:-------------8-----------8~---10-13-12----13----10----|:----------------------------12---------12----12-------|:------------------------------------------------------|:------------------------------------------------------|:------------------------------------------------------|
:--10-10-8-7~---10-10-8-7------------------------------|:-------------8-----------8~---10-13-12----13----10----|:----------------------------12---------12----12----12-|:------------------------------------------------------|:------------------------------------------------------|:------------------------------------------------------|
Tap to rate this tab
 
# A B C D E F G H I J K L M N O P Q R S T U V W X Y Z