Hey Monday – Mr Pushover tab

This is the acoustic guitar/Cassadee Pope's parts
Figure out the strumming pattern on your own and how many times to play each 
thing. Heres a cover that might help with the strumming http://www.youtube.com/watch?v=hnIQcOnNGQ0

|--3-3--3-3--3-3--3-3--||--3-3--3-3--3-3--3-3--| |--2-2--0-0--0-0--2-2--||--2-2--0-0--0-0--0-0--||--2-2--2-2--3-3--0-0--||--2-2--X-X--X-X--X-X--|
|--3-3--3-3--3-3--3~~~---||--3-3--3-3--3-3--3~~~---| |--2-2--0-0--0-0--0~~~---||--2-2--0-0--0-0--0~~~---||--2-2--2-2--3-3--3~~~---||--2-2--X-X--X-X--X------|
|--------3--3--||--------3--3--||--------2--0--| x2|--2--5--0--0--||--2--5--0--3--||--2--5--X--X--|
|-----2--3--3--||-----3--3--3--||-----2--2--0--||--5--0--2--0--| x2 on the second time you make the last chord ring|--5--0--2--3--||--5--X--2--X--|
|--3-3--3-3--3-3--3-3--||--3-3--3-3--3-3--3-3--| |--2-2--0-0--0-0--2-2--||--2-2--0-0--0-0--0-0--||--2-2--2-2--3-3--0-0--||--2-2--X-X--X-X--X-X--|
|--------3--3--||--------3--3--||--------2--0--| x2|--2--5--0--0--||--2--5--0--3--||--2--5--X--X--|
|-----2--3--3--||-----3--3--3--||-----2--2--0--||--5--0--2--0--| x2 on the second time you make the last chord ring|--5--0--2--3--||--5--X--2--X--|
PM ............. |--3--3--3-----||--3--3--3-----||--0--2--2-----||--0--0--2--5--| x2|--3--0--2--5--||--X--X--2--5--|
|--3--3-----3--||--3--3-----3--||--2--2-----0--||--0--2--5--0--| x2|--0--2--5--3--||--X--2--5--X--|
|--------3--3--||--------3--3--||--------2--0--| x2|--2--5--0--0--||--2--5--0--3--||--2--5--X--X--|
|-----2--3--3--||-----3--3--3--||-----2--2--0--||--5--0--2--0--| x2 on the second time you make the last chord ring|--5--0--2--3--||--5--X--2--X--|
|--3-3--3-3--3-3--3-3--||--3-3--3-3--3-3--3-3--| |--2-2--0-0--0-0--2-2--||--2-2--0-0--0-0--0-0--||--2-2--2-2--3-3--0-0--||--2-2--X-X--X-X--X-X--|
End on |--3~~~--||--3~~~--||--0~~~--||--0~~~--||--3~~~--||--X-----|
Please Rate
Please rate this tab:
x1.0