High And Mighty Color – Ichirin No Hana tab ver. 2

 •----------------------------------------------•
 | Artist: High and Mighty Color                |
 |----------------------------------------------|
| Title: Ichirin no Hana (A single flower) | |----------------------------------------------| | Tabbed by: nheryui93 | •----------------------------------------------•
Notice: Ive made two different tabs for intro If you notice the Intro for the 7th string is as the same as the Intro for six... Please read wisely..... Intro: for 7th string.......most part.....you`ll play tapping.... Tuning: (BEADGBe)
(0:00-0:09)|-------------------------------------|-----------------------------------||-------------------------------------|-----------------------------------||--6---6-9-4-6-11-4-6-9-4-6-12---7-12-|--6---6-9-4-6-11-4-6-9-4-6-9---7-9-||----4-------------------------5------|----4------------------------5-----||-------------------------------------|-----------------------------------||-------------------------------------|-----------------------------------||-------------------------------------|-----------------------------------|
|-------------------------------------|--------------------------------||-------------------------------------|--------------------------------||--6---4-6-11-4-6-9-4-6-12---7-12-6---|--6-9-4-6-9-4-6-12--L-----------||----4---------------------5--------4-|--------------------------------||-------------------------------------|--------------------------------||-------------------------------------|--------------------------------||-------------------------------------|-------------------------12S----|
Intro: for 6th string Tuning: (EADGBe) Standard
(0:00-0:09)|-------------------------------------------------------------||-------------------------------------------------------------||-----6h-t9--4h-6h-t11--4h-6h-t9--4h-6h-t12------7h---t12-p7--||---4------------------------------------------5--------------||-------------------------------------------------------------||-------------------------------------------------------------|
|---------------------------------------------------------||---------------------------------------------------------||---6h-t9--4h-6h-t11--4h-6h-t9--4h-6h-t9------7h---t9-p7--||-4-----------------------------------------5-------------||---------------------------------------------------------||---------------------------------------------------------|
|-----------------------------------------------------------||-----------------------------------------------------------||---6h-t9--4h-6h-t11--4h-6h-t9--4h-6h-t12------7h---t12-p7--||-4------------------------------------------5--------------||-----------------------------------------------------------||-----------------------------------------------------------|
|-------------------------------------------------------||-------------------------------------------------------||---6h-t9--4h-6h-t11--4h-6h-t9--4h-6h-t9-p6-------------||-4-----------------------------------------------------||-------------------------------------------------------||-----------------------------------------------6-\--\--|
C#/Db-x466xx Eb/D#-x688xx E-x799xx F#/Gb-x911•11xx Chorus:(0:10-0:25) C#/Db Eb/D# E F#/Gb Kimi wa kimi dake shika inai yo C#/Db Eb/D# E F#/Gb C#/Db Kawari nante hoka ni inainda Eb/D# E F#/Gb Kare nai de ichirin no hana Riff:
(0:25-0:34)|------------------------------------------4-------||--------------4--------4-------------4h-5---------||----6p-4---6--6-----6-----6--6--------------------||--------------------------------------------------||--------------------------------------------------||--------------------------------------------------|
|------------------------------------------4-------||--------------4--------4-------------4h-5---------||----6p-4---6--6-----6-----6--6--------------------||--------------------------------------------------||--------------------------------------------------||--------------------------------------------------|
|------------------------------------------7-----||------------4---------4-------------4h-5--------||--6p-4---6--6------6-----6--6-------------------||------------------------------------------------||------------------------------------------------||------------------------------------------------|
Verse:
|-----------------------------------------------------------||-----------------------------------------------------------||--------------------------6---------------------------4----||--------------------------6---------------------------4----||---4--4---4--4--4-------4-4-----4--4---4--4--4------4-2----||---4--4---4--4--4-------4-------4--4---4--4--4------4------|
Hikari ga matomo ni sashikomanai Kimi wa maru de hikage ni saita hana no you Nozonda hazu jyanakatta basho ni Ne wo harasete ugokezu ni irunda ne
Pre-Chorus:|--------------------------------------------------------------||--------------------------------------------------------------||---------------------------6------------------------------4---||---------------------------6------------------------------4---||-4--4---4--4--4---4--4---4-4----4--4---4--4--4---4--4---4-2---||-4--4---4--4--4---4--4---4------4--4---4--4--4---4--4---4-----|
To........... ji.... ka..........
|------------------------------------------------------------------||------------------------------------------------------------------||---------------------------6--------------------------------------||---------------------------6--------------------------------------||-4--4---4--4--4---4--4---4-4----4--4---4--4--4---4--4---4---------||-4--4---4--4--4---4--4---4------4--4---4--4--4---4--4---4-7\\\----|
ke........... ta.... kimochi haki... daseba ii..... Chorus: C#/Db Eb/D# E F#/Gb.....C#/Db Eb/D# Itami mo kurushimi mo subete wo uketomeru yo E F#/Gb C#/Db Dakara nakanai de Eb/D# E F#/Gb Waratte ite ichirin no hana REPEAT: ------------ ------------ --- Riff --- ------------ ------------ Verse II:
|-----------------------------------------------------------||-----------------------------------------------------------||--------------------------6---------------------------4----||--------------------------6---------------------------4----||---4--4---4--4--4-------4-4-----4--4---4--4--4------4-2----||---4--4---4--4--4-------4-------4--4---4--4--4------4------|
Ima ni mo karete shimai sou na Kimi no mujyaki na sugata ga mou ichido mitakute
Pre-Chorus II:|--------------------------------------------------------------||--------------------------------------------------------------||---------------------------6------------------------------4---||---------------------------6------------------------------4---||-4--4---4--4--4---4--4---4-4----4--4---4--4--4---4--4---4-2---||-4--4---4--4--4---4--4---4------4--4---4--4--4---4--4---4-----|
Ki.......... mi... no..........
|------------------------------------------------------------------||------------------------------------------------------------------||---------------------------6--------------------------------------||---------------------------6--------------------------------------||-4--4---4--4--4---4--4---4-4----4--4---4--4--4---4--4---4---------||-4--4---4--4--4---4--4---4------4--4---4--4--4---4--4---4-7\\\----|
chi.......... ka... ra ni.... naritai.......inda Chorus II: C#/Db Eb/D# E F#/Gb C#/Db Tatoe kimi igai no subete no hito wo Eb/D# E F#/Gb C#/Db Eb/D# Teki ni mawasu toki ga kite mo E F#/Gb Kimi no koto mamori nuku kara Bridge: You should notice that there is no other You should notice that there is no next time You should notice that there is no other You should notice that there is no next Time notice that you should notice that Notice that there`s no other Solo: id tab this for 7th string but i think this can also work for six ..... this solo part requires speed and right tap......
(02:18-02:45)--------5-7-5-----------5-7-5-----------5-7-5-----------5-7-5-----|--5-7-8-------8-7-5-7-8-------8-7-5-7-8-------8-7-5-7-8-------8-7-|------------------------------------------------------------------|------------------------------------------------------------------|------------------------------------------------------------------|------------------------------------------------------------------|------------------------------------------------------------------|
--9-10-9-------------------------------------------------------------|---------12-10-8------8-10-8-----------------------------------------|-----------------11-9--------11-9-7------7-9-7-----------------------|------------------------------------11-9-------11-9-7---------7-9-11-|------------------------------------------------------10-9-10--------|---------------------------------------------------------------------|---------------------------------------------------------------------|
--------------------9-7-10-9s-17s--15-14-|--12s--7----10-12-9S~--------|-----------8-7-10-8----------------------|-----------------------------|--7----9-7-------------------------------|-----------------------------|----11-----------------------------------|-----------------------------|-----------------------------------------|-----------------------------|-----------------------------------------|-----------------------------|-----------------------------------------|-----------------------------|
--12-9---------9-14-9---------9-12-9-------------------------9-|-------10---10--------10---10--------10-------------------10---|----------9--------------9--------------9---------------9------|------------------------------------------11---------11--------|---------------------------------------------12-9-12-----------|---------------------------------------------------------------|---------------------------------------------------------------|
--14----------------14----------------14----------------------------------|-----14----------14----14----------14----14----------------------------14-|--------16----16----------16----16----------16----------------------16----|-----------16----------------16----------------16----------------16-------|--------------------------------------------------17-14----14-17----------|--------------------------------------------------------14----------------|--------------------------------------------------------------------------|
--15----------------15----------------15----------------15g17S~----|-----15----------15----15----------15----15----------15------------|--------16----16----------16----16----------16----16---------------|-----------16----------------16----------------16------------------|-------------------------------------------------------------------|-------------------------------------------------------------------|-------------------------------------------------------------------|
--17-------15-------17-------15-------12-------15-|-----15-12----12-15----15-12----12-10----10-12----|--------------------------------------------------|--------------------------------------------------|--------------------------------------------------|--------------------------------------------------|--------------------------------------------------|
--------12------10------12------10-----10--7~|--------------------|--12-10----10-8----8-10----10-8----8-7-------|---12b===r-12~~-----|---------------------------------------------|---11b===-----------|---------------------------------------------|--------------------|---------------------------------------------|--------------------|---------------------------------------------|--------------------|---------------------------------------------|--------------------|
Chorus: III C#/Db Eb/D# E F#/Gb Kimi wa kimi dake shika inai yo C#/Db Eb/D# E F#/Gb Ima made mo kore kara saki ni mo C#/Db Eb/D# E F#/Gb C#/Db Tatoe kimi igai no subete no hito wo Eb/D# E F#/Gb C#/Db Teki ni mawasu toki ga kite mo Eb/D# E F#/Gb C#/Db Kimi no koto mamori nuku kara Eb/D# E F#/Gb Makenai de ichirin no hana You should notice that there is no other You should notice that there is no next time You should notice that there is no other You should notice that there is no next Repeat: ------------ ------------ --- Riff --- ------------ ------------ Time notice that you should notice that Notice that there`s no other Legend: h --- hammer on p --- pull off b --- bend r --- bend release === --- bend hold x --- dead string ~ --- let ring t --- picking: pull-off and hammer-on
Please rate this tab:
x1.0