High And Mighty Color - Ichirin No Hana Bleach Opening Song tab

**********Song Title - Ichirin No Hana****************
**********Band/Artist- High and Mighty Color**********

Tab by K.O.H (http://www.macidol.com/jamroom/bands/4699)
This is it but sorry for not including solo.
Enjoy



E||--------------------------|--------------------------|B||-----------5--------7-----|-----5--------8-----------|G||--6-----------------------|--------------------------|D||-----4--6-----4--6-----4--|--6-----4--6--------4--6--|A||--------------------------|-----------------4--------|E||--------------------------|--------------------------|
--------------------------|--------------------------|-----------5--------7-----|-----5--------8-----------|--6-----------------------|--------------------------|-----4--6-----4--6-----4--|--6-----4--6--------4--6--|--------------------------|-----------------4--------|--------------------------|--------------------------|
--------------------------|--------------------------|--------------------------|--------------------------|--6--6--6--6--6--6--6--6--|--8--8--8--8--8--8--8--8--|--6--6--6--6--6--6--6--6--|--8--8--8--8--8--8--8--8--|--4--4--4--4--4--4--4--4--|--6--6--6--6--6--6--6--6--|--------------------------|--------------------------|
--------------------------|------------------------|--------------------------|--------------------------|------------------------|--------------------------|--9--9--9--9--9--9--9--9--|--11------11------11----|--6--6--6--6--6--6--6--6--|--9--9--9--9--9--9--9--9--|--11------11------11----|--6--6--6--6--6--6--6--6--|--7--7--7--7--7--7--7--7--|--9-------9-------9-----|--4--4--4--4--4--4--4--4--|--------------------------|------------------------|--------------------------|
--------------------------|--------------------------|--------------------------|--------------------------|--8--8--8--8--8--8--8--8--|--9--9--9--9--9--9--9--9--|--8--8--8--8--8--8--8--8--|--9--9--9--9--9--9--9--9--|--6--6--6--6--6--6--6--6--|--7--7--7--7--7--7--7--7--|--------------------------|--------------------------|
--------------------------|------------------------|------------------------|--------------------------|------------------------|------------------------|--9--9--9--9--9--9--9--9--|--6----6--6----6--6--6--|--8----8--8----8--8--8--|--9--9--9--9--9--9--9--9--|--6----6--6----6--6--6--|--8----8--8----8--8--8--|--7--7--7--7--7--7--7--7--|--4----4--4----4--4--4--|--6----6--6----6--6--6--|--------------------------|------------------------|------------------------|
------------------------|--------------------||-----------------------|------------------------|--------------------||-----------------------|--9----9--9----9--9--9--|--11/---------------||*--6----6----6--6------|--9----9--9----9--9--9--|--11/---------------||*--6----6----6--6------|--7----7--7----7--7--7--|--9/----------------||---4----4----4--4------|------------------------|--------------------||---4----4----4--4------|
----------------------|----------------------|-----------------------||---------------5------|----------------------|---------------5-------||--6----6----4--7------|--6----6----6--6------|--6----6----4--7------*||--6----6----4--7------|--6----6----6--6------|--6----6----4--7------*||--4----4----4--5------|--4----4----4--4------|--4----4----4--5-------||--4----4----4--5------|--4----4----4--4------|--4----4----4--5-------||
Half Time Feel
-----------------------|--------------------|-----------------------|-----------------------|--------------------|-----------------------|-----------------------|-----------6--------|-----------------------|--6--6----6--6--6------|-----------6--------|--6--6----6--6--6------|--4--4----4--4--4------|-----------4--------|--4--4----4--4--4------|--4--4----4--4--4------|--------4-----------|--4--4----4--4--4------|
--------------------|-----------------------|--------------------|--------------------|-----------------------|--------------------|-----------4--------|-----------------------|-----------6--------|-----------4--------|--6--6----6--6--6------|-----------6--------|-----------2--------|--4--4----4--4--4------|-----------4--------|--------2-----------|--4--4----4--4--4------|--------4-----------|
-----------------------|--------------------|-----------------------|-----------------------|--------------------|-----------------------|-----------------------|-----------4--------|-----------------------|--6--6----6--6--6------|-----------4--------|--6--6----6----6----6--|--4--4----4--4--4------|-----------2--------|--4--4----4----4----4--|--4--4----4--4--4------|--------2-----------|--4--4----4----4----4--|
---------------------|-----------------------|---------------------|---------------------|-----------------------|---------------------|------------6--------|-----------------------|------------4--------|----6----6--6--------|--6--6----6----6----6--|----6----6--4--------|----4----4--4--------|--4--4----4----4----4--|----4----4--2--------|----4----4-----------|--4--4----4----4----4--|----4----4-----------|
-----------------------|---------------------|-----------------------|-----------------------|---------------------|-----------------------|-----------------------|------------6--------|-----------------------|--6--6----6----6----6--|----6----6--6--------|--6--6----6----6----6--|--4--4----4----4----4--|----4----4--4--------|--4--4----4----4----4--|--4--4----4----4----4--|----4----4-----------|--4--4----4----4----4--|
(A tempo)
---------------------||---------------------------|--------------------------|---------------------||---------------------------|--------------------------|------------4--------||*--6--6--6--6--6--6--6--6--|--8--8--8--8--8--8--8--8--|----6----6--4--------||*--6--6--6--6--6--6--6--6--|--8--8--8--8--8--8--8--8--|----4----4--2--------||---4--4--4--4--4--4--4--4--|--6--6--6--6--6--6--6--6--|----4----4-----------||---------------------------|--------------------------|
--------------------------|------------------------|--------------------------|--------------------------|------------------------|--------------------------|--9--9--9--9--9--9--9--9--|--11------11------11----|--6--6--6--6--6--6--6--6--|--9--9--9--9--9--9--9--9--|--11------11------11----|--6--6--6--6--6--6--6--6--|--7--7--7--7--7--7--7--7--|--9-------9-------9-----|--4--4--4--4--4--4--4--4--|--------------------------|------------------------|--------------------------|
--------------------------|--------------------------|--------------------------|--------------------------|--8--8--8--8--8--8--8--8--|--9--9--9--9--9--9--9--9--|--8--8--8--8--8--8--8--8--|--9--9--9--9--9--9--9--9--|--6--6--6--6--6--6--6--6--|--7--7--7--7--7--7--7--7--|--------------------------|--------------------------|
-------------------------||--------------------------|-------------------------||--------------------------|--11------11------11----*||--6--6--6--6--6--6--6--6--|--11------11------11----*||--6--6--6--6--6--6--6--6--|--9-------9-------9------||--4--4--4--4--4--4--4--4--|-------------------------||--------------------------|
--------------------------|--------------------------|--------------------------|--------------------------|--8--8--8--8--8--8--8--8--|--9--9--9--9--9--9--9--9--|--8--8--8--8--8--8--8--8--|--9--9--9--9--9--9--9--9--|--6--6--6--6--6--6--6--6--|--7--7--7--7--7--7--7--7--|--------------------------|--------------------------|
--------------------------||-------------------------|------------------------|--------------------------||-------------------------|------------------------|--9--9--9--9--9--9--9--9--||*--6----6--6----6--6--6--|--8----8--8----8--8--8--|--9--9--9--9--9--9--9--9--||*--6----6--6----6--6--6--|--8----8--8----8--8--8--|--7--7--7--7--7--7--7--7--||---4----4--4----4--4--4--|--6----6--6----6--6--6--|--------------------------||-------------------------|------------------------|
------------------------|------------------------------|------------------------|------------------------------|--9----9--9----9--9--9--|--11----11--11----11--11--11--|--9----9--9----9--9--9--|--11----11--11----11--11--11--|--7----7--7----7--7--7--|--9-----9---9-----9---9---9---|------------------------|------------------------------|
------------------------|------------------------|------------------------|------------------------|------------------------|------------------------|--6----6--6----6--6--6--|--8----8--8----8--8--8--|--9----9--9----9--9--9--|--6----6--6----6--6--6--|--8----8--8----8--8--8--|--9----9--9----9--9--9--|--4----4--4----4--4--4--|--6----6--6----6--6--6--|--7----7--7----7--7--7--|------------------------|------------------------|------------------------|
--------------------||-----------------------|----------------------|--------------------||-----------------------|---------------5------|--11/---------------||*--6----6----6--6------|--6----6----4--7------|--11/---------------||*--6----6----6--6------|--6----6----4--7------|--9/----------------||---4----4----4--4------|--4----4----4--5------|--------------------||---4----4----4--4------|--4----4----4--5------|
----------------------|-----------------------||------------------|----------------------|---------------5-------||------------------|--6----6----6--6------|--6----6----4--7------*||------------------|--6----6----6--6------|--6----6----4--7------*||------------------|--4----4----4--4------|--4----4----4--5-------||------------------|--4----4----4--4------|--4----4----4--5-------||------------------|
--4------------4-4-4-4-|----------------------------------|-------------------||--4------------4-4-4-4-|----------------------------------|-------------------||--6------------6-6-6-6-|--6-6-6-6-6-6-6-6-------------4-5-|--6/---------------||--6------------6-6-6-6-|--6-6-6-6-6-6-6-6-------4-6-7-----|--6/---------------||--4------------4-4-4-4-|--4-4-4-4-4-4-4-4-4-6-7-----------|--4/---------------||--4------------4-4-4-4-|--4-4-4-4-4-4-4-4-----------------|--4/---------------||
***********************************************************************************
Tap to rate this tab
 
# A B C D E F G H I J K L M N O P Q R S T U V W X Y Z