Hilera - Rhyme Without Reason tab

      
HILERA-RHYME WITHOUT REASON ALBUM

1-RHYME WITHOUT REASON
2-POT OF GOLD
3-PASS THE WALLS
4-DEFINE
5-LIES IN MY HEAD
6-DEHADO
7-UP IN THE HEAVENS
8-All Of This
9-PILIT
10-SUNGRASS-
11-NOTHING NEW
12-SMILES AND FADES-
BONUS--MAHIRAP MAGMAHAL NG SYOTA NG IBA

1-RHYME WITHOUT REASON

Intro –Ebm7 Fm7 2X
Bm Ebm7 Fm7 2X

Verse-Bm Ebm7 Fm7 2X

Prechorus-Eb5 C5

Chorus -Bm Ebm7 Fm7 4X

Repeat intro-verse-chorus
 
Solo- 
Bm Ebm7 Fm7 2X
Ebm7 Fm7 2X
Repeat chorus

Bm end


2-POT OF GOLD
INTRO: Eb-Ab-Bb(4x) Ab~~ Bb~~ 

VERSE

Eb                        Ab-Bb
Who wrote the rules that God made?
Eb                       Ab-Bb
Who made the signs that haunt me?
C                     Ab           Bb
Who broke the window? Who ate the goblets?
C                   Ab~Bb~~
Who said the end is near?


REFRAIN
C            Ab
Do you know, do you know
Eb             Bb
The way to the pot of gold
C                Ab
How’ld you know, how’ld you know
Eb               Bb
That she’s worth waiting for
    C              Ab        Bb~~~
Now do you see how it will be
Bb                                Eb~~~Bb*Ab-Bb(2x)
Do you know, do you know, do you know          ONE!!! TWO!!!

(REPEAT VERSE AND REFRAIN EXCEPT LAST LINE)


Bb             
Do you know, do you know!?


        Eb*Bb*Ab*Bb*Eb*Bb*Ab pause!!
do you KNOW

Eb*Bb*Ab*Bb*C~Bb~~~     Eb*Bb*Ab*Bb*Eb*Bb*Ab pause!!
OHh....ohh.....oHhh.....ooohhhh.....ohH....ohh....ohhhh

*continue

Eb*Bb*Ab*Bb*C~Bb~~~      then  Ab~~~~~ Bb~~~~~~   
OHh....ohh.....oHhh....

instrumental:

Eb5-Ab5-Bb5(4x)


3-PASS THE WALLS
intro-Bm F#m 2X

verse: Bm F#m 2X
Drain the light out on me
Walking through this evening


cho: Em Bm Em F#m 2X
Pass the walls around the room
Still contemplating on the tomb
And waiting til the flowers bloom
Fade away


ADLIB: Bm F#m 2X Em Bm Em F#m 2X

verse: Bm F#m 2X
Turn the light off on me
Just to know the feeling

cho: Em Bm Em F#m 2X
Pass the walls around the room
Still contemplating on the tomb
And waiting til the flowers bloom
Fade away from here

Bm F#m ----



4-DEFINE-
G#/C=X366XXX

Intro:C# Drum beat

Chorus:C#-G#-Bb-F#

Intro2- 
C#-G#-Bb-F#


Verse:C#-G#/C-Bbm-F# 2X

REF-C#-G#/C-Bbm-F# 2X

Chorus:C#-G#-Bb-F# 2X

Verse:C#-G#/C-Bbm-F# 2X

REF-C#-G#/C-Bbm-F# 2X

Chorus:C#-G#-Bb-F# 2X

Bridge:Bbm-F#-C#-G# Bbm F#  G#

Verse:C#-G#/C-Bbm-F# 2X

REF-C#-G#/C-Bbm-F# 2X



5-LIES IN MY HEAD-
INTRO Bm - G

VERSE- Bm G
Tonight don’t let me fall asleep
If i do, please wake me up
Cos it comes like a thief in the night
You never know


Tonight don’t let me fall apart
If i do, please pick me up
Cos it comes like a thief in the night
You never know

INTERLUDE-D G D A D F#m D A

CHORUS- D G Em G
Cos tonight i’ll think about the words you said
Tonight i’ll think about the lies in my head

VERSE 2 Bm G

Tonight don’t even bother me
Cos i won’t even be here
So tonight just let me go
And think until my fingers bleed

solo-
Bm G 2x
D G D A D F#m D A 2X

CHORUS2 D G Em G
Tonight i’ll think about the words you said
Tonight i’ll think about the lies in my head

The lies in my ...D

6-DEHADO

Intro-G#

VERSE1-

G#          Cm    G#         Cm
Sa gitna ng kawalan may inaasam
  C#m Bbm  Eb  Ebsus 
Simpleng katotohanan
G#          Cm    G#         Cm
Sa dulo ng lahat may nag-aabang
  C#m Bbm  Eb  Ebsus 
Ang kagustuhan

RefRAIN
Fm             Cm    Fm         Cm 
Mayroon akong dala san man mapunta
Bm   C#m    Bm      C#m 
Di mag-iisa, di mag-iisa
Fm      Cm  
Salitang ngiti nila
Fm    Cm   Bbm    C#m      Ebsus   Ebsus
Sa bungad ng tula ako’y mawawala

Chorus-
G#          Cm 
Wag kang kukurap
G#         Cm 
Para sakin lang
G#           Cm 
Di magtatagal
Bbm       C#m
Malilimot mo rin ako

Post Chorus
F Cm 2X Bm C#m 2x

VERSE-

G#          Cm    G#         Cm
Sa gitna ng kawalan may inaasam
   Bbm C#m Eb  Ebsus 
Simpleng katotohanan
G#          Cm    G#         Cm
Sa dulo ng lahat may nag-aabang
   Bbm C#m Eb  Ebsus 
RefRAIN
Fm             Cm    Fm         Cm 
Mayroon akong dala san man mapunta
Bm   C#m    Bm      C#m 
Di mag-iisa, di mag-iisa
Fm      Cm  
Salitang ngiti nila
Fm    Cm   Bbm    C#m      Ebsus   Ebsus
Sa bungad ng tula ako’y mawawala

Chorus-
G#          Cm 
Wag kang kukurap
G#         Cm 
Para sakin lang
G#           Cm 
Di magtatagal
Bbm       C#m
Malilimot mo rin ako

OUTRO2X
F Cm 2X Bm C#m 2x

G#-END~

REPEAT VERSE-REF AND CHORUS-

7-UP IN THE HEAVENS
verse-C#5 D5 E5 F#5 2X

If i could see the light then i’m not so blind
I will realize
That i have become one of them
I will realize

Ref-D5 E5 F#5 4X

Away from reality
I indulge myself, indulge myself
To live, to try to fight
To gain

Cho-F#5 A B 2X
FLY…………UP IN THE HEAVENS SO HIGH…


Interlude-C#5 D5 E5 F#5 2X

repeat verse ref and chorus

8-All Of This 
intro
A E G#5 4X

verse- A E G#5 4X
All the time
Doing nothing, getting nothing
Sometimes
Fishing something, getting nothing
From me
Diamond rings are for earrings only
Too bad
It’s difficult to fall

chorus- C#5 A5 E5 F#5 2X
DO INTRO-                                                   
repeat verse
chorus

9-PILIT

INTRO-C9 G 2X

VERSE-C9-G 4X
Sa yo ako’y walang ligtas
Di makawala sa isip ko
Sa yo baliw ang utak ko
Buong sistema ko
Sa yo

 CHORUS- 
C9             G 
Pinipilit kong magpakasaya 
C9             G 
Pinipilit kong patawanin ka
C9             G      Am   Bm   C9 G
Pinipilit kong magpakaiba..........HAAAAH...

VERSE-C9-G 4X
Sa yo ako’y walang ligtas
Di makawala sa isip ko
Sa yo baliw ang utak ko
Buong sistema ko
Sa yo


 CHORUS- 
C9             G 
Pinipilit kong magpakasaya 
C9             G 
Pinipilit kong patawanin ka
C9             G      Am   Bm   C9    G
Pinipilit kong magpakaiba..........HAAAAH...

INTERLUDE - DO CHORUS CHORDS
THEN REAPEAT CHO. END

10-SUNGRASS-

INTRO-

Em9 DM7(9)4X 

Em    B C 2X

VERSE-

Em    B C 2X

INTERLUDE-Em  B C 

VERSE-
Em    B C 2X

CHORUS:
G5  E5   C5 2X

INTERLUDE2-Em  B C 4X

 VERSE-
Em    B C 2X

CHORUS:
G5  E5   C5 2X



INERLUDE- GM7 Fm7 
BASS-

D------4---2--|A---5----3----|MANY TIMES HEHEHE-3----1------|
G5 E5 C5 2X CHORUS: G5 E5 C5 G5 E5 C5 D5 G5.... bsssssssssssssssssssssssssssss.......... 11-NOTHING NEW INTRO-F#m C#m VERSE-F#m Bm Dm 2X CHORUS- A B C#m D 4X THEN F#m Bm Dm VERSE-F#m Bm Dm 2X CHORUS- A B C#m D 4X INTERLUDE- F#m C#m 8X A B C#m D2X REPEAT CHORUS OUTRO-F#m C#m 12-SMILES AND FADES- intro-Bb Bb Gm Eb F 2x verse-Bb Gm Eb F 2x Intro-Bb Gm Eb F 2x Verse-Bb Gm Eb F 2x Eb F Gm 2x then... G# (27 strokes)...F Repeat intro-verse... then do intro chords 4x INTERLUDE/OUTRO Bb Gm Eb F 4x Intro-
|-------------------------------------------------------||-------------------------------------------------------||----------------------------5~-------------------------||-x-xx-2/3-3-3/4-4-4/5-5-----5~-------------------------||-x-xx-x-x-x-x-x-x-x-x-x-----3~-------------------------||-x-xx-x-x-x-x-x-x-x-x-x--------------------------------|
Verse2-
|-----1----1-|-----0---0-x-|-----5/7p8-----|-----3-----------||-----1--1-1-|-----2---2-x-|-5h6-------6-5-|-----3--3--------||-2h4-2--2-2-|-2h4-0---0-x-|---------------|-3h4-4--4--------||------------|---------2-x-|---------------|--------5--------||------------|-------------|---------------|-----------------||------------|-------------|---------------|-----------------|
|---------------------3----------3------------------------||---------------------3--3-------3-3--3-------------------||-----------------3h4-4--4-----3h3-3--3----3--------------||-3-33--4-44--5----------5-----------------3---pause------||-3-33--4-44--5----------------------------1--------------||-1-11--2-22--3-------------------------------------------|
Verse2-
|-----1----1-|-----0---0-x-|-----5/7p8-----|-----3-----------||-----1--1-1-|-----2---2-x-|-5h6-------6-5-|-----3--3--------||-2h4-2--2-2-|-2h4-0---0-x-|---------------|-3h4-4--4--------||------------|---------2-x-|---------------|--------5--------||------------|-------------|---------------|-----------------||------------|-------------|---------------|-----------------|
|---------------------3----------3------------------------||---------------------3--3-------3-3--3-------------------||-----------------3h4-4--4-----3h3-3--3----3333333333-----||-3-33--4-44--5----------5-----------------3333333333-----||-3-33--4-44--5----------------------------1111111111-----||-1-11--2-22--3-------------------------------------------|
Chorus-|---------------------------------|----------------------||---------------------------------|----------------------||---------------------------------|----------------------||-8-x-8-x-8-x-8-x-8-x-8-x-8-x-8---|-3------x333333-------||-8-x-8-x-8-x-8-x-8-x-8-x-8-x-8---|-3-hold-x333333-------||-6-x-6-x-6-x-6-x-6-x-6-x-6-x-6---|-1------x111111-------|
|---------------------------------|----------------------||---------------------------------|----------------------||---------------------------------|----------33333333333-||-8-x-8-x-8-x-8-x-8-x-8-x-8-x-8---|--5-5-5-5-33333333333-||-8-x-8-x-8-x-8-x-8-x-8-x-8-x-8---|--5-5-5-5-11111111111-||-6-x-6-x-6-x-6-x-6-x-6-x-6-x-6---|--3-3-3-3-------------|
Verse3-
|-----1----1-|-----0---0-x-|-----5/7p8-----|-----3-----------||-----1--1-1-|-----2---2-x-|-5h6-------6-5-|-----3--3--------||-2h4-2--2-2-|-2h4-0---0-x-|---------------|-3h4-4--4--------||------------|---------2-x-|---------------|--------5--------||------------|-------------|---------------|-----------------||------------|-------------|---------------|-----------------|
|---------------------3----------3------------------------||---------------------3--3-------3-3--3-------------------||-----------------3h4-4--4-----3h3-3--3----3333333333-----||-3-33--4-44--5----------5-----------------3333333333-----||-3-33--4-44--5----------------------------1111111111-----||-1-11--2-22--3-------------------------------------------|
Solo- Not sure
|-10^---------------------------------------------------||-13^--13-11-13-----------------------13b--13-11--------||---------------14---10-------8^10----------------------||----------------------12-10----------------------------||-------------------------------------------------------||-------------------------------------------------------|
|----11-10-------------------------------------------------------------||-13-------13---11-10------------------------9-9-9--101010-11111114----||---------------------13----10-8----10-8-----101010-111111-12121213----||--------------------------------10------10----------------------------||----------------------------------------------------------------------||----------------------------------------------------------------------|
|------------15-14~---14---------------------------------||--------13-----------------13--11---13--11---13--11-----||9^10-10-----------------10--------10------10-------10---||--------------------------------------------------------||--------------------------------------------------------||--------------------------------------------------------|
|----------------------------------------------------------------||--9-9-9--101010-111111-121212-131313-141414-151515-161616-17----||--101010-111111-121212-131313-141414-151515-161616-171717-18----||----------------------------------------------------------------||----------------------------------------------------------------||----------------------------------------------------------------|
Verse-
|------------|-------------|---------------|-----------------||------------|-------------|---------------|-----------------||------------|-------------|---------------|-----------------||------------|-------------|---------------|-----------------||------------|-------------|---------------|-----------------||------------|-------------|---------------|-----------------|
|---------------------3----------3------------------------||---------------------3--3-------3-3--3-------------------||-----------------3h4-4--4-----3h3-3--3----3333333333-----||-3-33--4-44--5----------5-----------------3333333333-----||-3-33--4-44--5----------------------------1111111111-----||-1-11--2-22--3-------------------------------------------|
last Verse- verse with strumming and 1fret higher F# A#7 D#m7 G#7 A#m D#m G#m Bb-A#m Bridge 0utro
|----------------------------------------------------||----------------------------------------------------||-4-4-4-4-4-4-4-4------------------------------------||-6-6-6-6-6-6-6-6---8-8-8-8-8-8-8-8-8----------------|2x|-6-6-6-6-6-6-6-6---8-8-8-8-8-8-8-8-8----------------||-4-4-4-4-4-4-4-4---6-6-6-6-6-6-6-6-6----------------|
|----------------------------------------------------||----------------------------------------------------||----------------------------------------------------||-4-4-4-4-4-4-4-4--4--------------444444444----------|end|-6-6-6-6-6-6-6-6--4-h0ld---------444444444----------||-6-6-6-6-6-6-6-6--2--------------222222222----------|
Intro: F-F#-G-C5 Verse 1 F A7 Mahirap talagang magmahal ng syota ng iba, DM7 G Hindi mo mabisita kahit na okey sa kanya; F5 F#5 G Mahirap! Oh, mahirap talaga, Gm Bb5 Maghanap na lang kaya ng iba; Verse 2 F A7 kapag aking makita ang kanyang mga mata, DM7 G Nawawala ang aking pagkadismaya; F5 F#5 G5 Sige lang, sugod lang, o bahala na! GM7 Bb5 Bahala na kung magkabistuhan pa. Chorus- Bb5 I dial mo ang number sa telepono, F5(pause) Huwag mong ibigay ang tunay na pangalan mo; Bb5 Pag nakausap mo sya sasabihin sayo, G5 Bb5 Tumawag ka mamaya nanditong s'yota ko, Verse 3 F A7 Mahirap talaga ang magmahal ng iba DM7 G O, sakit ng ulo, maniwala ka; F F#dim G Ngunit kahit ano pang sabihin nila, GM7 C Iwanan siya'y di ko magagawa Adlib:dO cHORUS vERSE- F A7 Mahirap talagang magmahal ng syota ng iba, DM7 G7 Hindi mo mabisita kahit na okey sa kanya; F5 F#5 G Mahirap! Oh, mahirap talaga, GM7 Bb5 Maghanap na lang kaya ng iba; Rolling F# A#7 Mahirap humanap ng iba, D#m7 G#7 O, sakit ng ulo, maniwala ka; F# Gdim G#m Ngunit kahit ano pang sabihin nila, G#m C# Iwanan siya'y di ko magagawa. Coda: G#m Bb Iwanan siya'y di ko magagawa, G#m Bb Iwanan siya'y di ko magagawa, G#m F# F# Iwanan siya'y di ko magagawa YEAAAHHHH.. AWW WOOOOOOHHHHH.... by rakiztahz_03@yahoo.com or f_sario@yahoo.com made in Lucena City
Tap to rate this tab
 
# A B C D E F G H I J K L M N O P Q R S T U V W X Y Z