Hillsong United – Solution tab ver. 2

Solo after Second Chorus|---------------------------------||---------------------------------||---------------------------------||---------------6-8-8-8-6-6-----6-||-6-6-6-9-9-6-9-------------9-9---||---------------------------------|
|---------------------------------||---------------------------------||-----------------6-6-6-----------||---------------6-------9-9-9-8-8-||-6-6-6-9-9-6-9-------------------||---------------------------------|
|---------------------------------||---------------------------------||---------------------------------||---------------6-8-8-8-6-6-----6-||-6-6-6-9-9-6-9-------------9-9---||---------------------------------|
|---------------------------------------||--------------------------------9h11-9-||-6-6-6-----------11-11-11-9-9-8--------||-------9-9-9-8-8-----------------------||---------------------------------------||---------------------------------------|
Outro Solo|---------------------------------||---------------------------------||---------------------------------||---------------6-8-8-8-6-6-----6-||-6-6-6-9-9-6-9-------------9-9---||---------------------------------|
|---------------------------------||---------------------------------||-----------------6-6-6-----------||---------------6-------9-9-9-8-8-||-6-6-6-9-9-6-9-------------------||---------------------------------|
|---------------------------------||---------------------------------||---------------------------------||---------------6-8-8-8-6-6-----6-||-6-6-6-9-9-6-9-------------9-9---||---------------------------------|
|---------------------------------||---------------------------------||-6-6-6-----------11-11-11-9-9-8--||-------9-9-9-8-8-----------------||---------------------------------||---------------------------------|
|---------------------------------||---------------------------------||---------------------------------||---------------6-8-8-8-6-6-----6-||-6-6-6-9-9-6-9-------------9-9---||---------------------------------|
|---------------------------------||---------------------------------||-----------------6-6-6-----------||---------------6-------9-9-9-8-8-||-6-6-6-9-9-6-9-------------------||---------------------------------|
|---------------------------------||---------------------------------||---------------------------------||---------------6-8-8-8-6-6-----6-||-6-6-6-9-9-6-9-------------9-9---||---------------------------------|
|-------------------19-19-18-18-18-18-18-18-16~~-||-19-19-19-17-17-16------------------------------||------------------------------------------------||------------------------------------------------||------------------------------------------------||------------------------------------------------|
Please rate this tab:
x1.0