Hillsong United – An Introduction tab ver. 2

Title: An Introduction
Artist: Hillsong United
Album: United We Stand
Copyright: 2006
Tabber: Miguel Ángel García
Instructions: Use the bridge pickup with a slight distortion,
British-voiced amp and a digital delay set on dotted eighth notes with ~50% mix and ~35% feedback.
// Usar pastilla del puente con distorsión ligera, amplificación estilo británico y 
delay a un tiempo de corchea con puntillo, mezcla de ~50% y retroalimentación de ~35%.
Tempo = 150

Legend
L - tied note
x - dead note
h - hammer on/pull off
b - bend
s - slide
~ - vibrato
g - ghost note
> - accentuated note
t - trill
M - palm mute
. - staccato
P - popping (bass)
S - slapping (bass)
+ - tapping
W - wide vibrato
< - fade in
w - whammy bar
= - tremolo picking
v - brush up
^ - brush down
V - pick stroke up
n - pick stroke down

Lead Guitar=============================================================E |----------------------------|----------------------------|B |----------------------------|--------------12-12-14-14---|G |--14-14-14-14-14-14-14-14---|--14-14-14-14---------------|D |----------------------------|----------------------------|A |----------------------------|----------------------------|E |----------------------------|----------------------------|
----------------------------|----------------------------|----------------------------|--------------12-12-14-14---|--13-13-13-13-13-13-13-13---|--13-13-13-13---------------|----------------------------|----------------------------|----------------------------|----------------------------|----------------------------|----------------------------|
----------------------------|----------------------------|----------------------------|----------------------------|--11-11-11-11-11-11-11-11---|--11-11-11-11-14-14-13-13---|----------------------------|----------------------------|----------------------------|----------------------------|----------------------------|----------------------------|
----------------------------|----------------------------|----------------------------|----------------------------|--9--9--9--9--9--9--9--9----|--9--9--9--9--9--9--9--9----|----------------------------|----------------------------|----------------------------|----------------------------|----------------------------|----------------------------|
----------------------------|----------------------------|----------------------------|--------------12-12-14-14---|--14-14-14-14-14-14-14-14---|--14-14-14-14---------------|----------------------------|----------------------------|----------------------------|----------------------------|----------------------------|----------------------------|
----------------------------|----------------------------|----------------------------|--------------12-12-14-14---|--13-13-13-13-13-13-13-13---|--13-13-13-13---------------|----------------------------|----------------------------|----------------------------|----------------------------|----------------------------|----------------------------|
----------------------------|----------------------------|----------------------------|----------------------------|--11-11-11-11-11-11-11-11---|--11-11-11-11-14-14-13-13---|----------------------------|----------------------------|----------------------------|----------------------------|----------------------------|----------------------------|
----------------------------|----------------------------|----------------------------|----------------------------|--9--9--9--9--9--9--9--9----|--9--9--9--9--9--9--9--9----|----------------------------|----------------------------|----------------------------|----------------------------|----------------------------|----------------------------|
----------------------------|----------------------------|----------------------------|----------------------------|--7--7--7--7--7--7--7--7----|--7--7--7--7--9--9--9--9----|----------------------------|----------------------------|----------------------------|----------------------------|----------------------------|----------------------------|
----------------------------|----------------------------|----------------------------|----------------------------|--6--6--6--6--6--6--6--6----|--6--6--6--6--6--6--6--6----|----------------------------|----------------------------|----------------------------|----------------------------|----------------------------|----------------------------|
----------------------------|----------------------------|----------------------------|----------------------------|--7--7--7--7--7--7--7--7----|--7--7--7--7--7--7--7--7----|----------------------------|----------------------------|----------------------------|----------------------------|----------------------------|----------------------------|
----------------------------|----------------------------|----------------------------|----------------------------|--9--9--9--9--9--9--9--9----|--9--9--9--9--9--9--9--9----|----------------------------|----------------------------|----------------------------|----------------------------|----------------------------|----------------------------|
----------------------------|----------------------------|----------------------------|----------------------------|--7--7--7--7--7--7--7--7----|--7--7--7--7--9--9--9--9----|----------------------------|----------------------------|----------------------------|----------------------------|----------------------------|----------------------------|
----------------------------|----------------------------|----------------------------|----------------------------|--6--6--6--6--6--6--6--6----|--6--6--6--6--6--6--6--6----|----------------------------|----------------------------|----------------------------|----------------------------|----------------------------|----------------------------|
----------------------------|----------------------------|----------------------------|----------------------------|--7--7--7--7--7--7--7--7----|--7--7--7--7--7--7--7--7----|----------------------------|----------------------------|----------------------------|----------------------------|----------------------------|----------------------------|
----------------------------|----------------------------|----------------------------|----------------------------|--9--9--9--9--9--9--9--9----|--9--9--9--9--9--9--9--9----|----------------------------|----------------------------|----------------------------|----------------------------|----------------------------|----------------------------|
--10-10-10-10-10-10-10-10---|--10-10-10-10-12-12-12-12---|--12-12-12-12-12-12-12-12---|--12-12-12-12-12-12-12-12---|----------------------------|----------------------------|----------------------------|----------------------------|----------------------------|----------------------------|----------------------------|----------------------------|
--9--9--9--9--9--9--9--9----|--9--9--9--9--9-------------|--10-10-10-10-10-10-10-10---|--10-10-10-10-10-9--9--9----|----------------------------|-----------------12b12b12b--|----------------------------|----------------------------|----------------------------|----------------------------|----------------------------|----------------------------|
--10-10-10-10-10-10-10-10---|--10-10-10-10-10-10-10-10---|--12-12-12-12-12-12-12-12---|--12-12-12-12-12-12-12-12---|----------------------------|----------------------------|----------------------------|----------------------------|----------------------------|----------------------------|----------------------------|----------------------------|
--12-12-12-12-12-12-12-12---|--12-12-12-12-------9--9----|--10-10-10-10-10-10-10-10---|--10-10-10-10-12-12---------|----------------------------|----------------------------|----------------------------|----------------------------|----------------------------|----------------------------|----------------------------|----------------------------|
--10-10-10-10-10-10-10-10---|--10-10-10-10-12-12-12-12---|--12-12-12-12-12-12-12-12---|--12-12-12-12-12-12-12-12---|----------------------------|----------------------------|----------------------------|----------------------------|----------------------------|----------------------------|----------------------------|----------------------------|
--9--9--9--9--9--9--9--9----|--9--9--9--9--9--9--9--9----|--10-10-10-10-10-10-10-10---|--10-10-10-10-10-10-10-10---|----------------------------|----------------------------|----------------------------|----------------------------|----------------------------|----------------------------|----------------------------|----------------------------|
--10-10-10-10-10-10-10-10---|--10-10-10-10-10-10-10-10---|--12-12-12-12-12-12-12-12---|--12-12-12-12-12-12-12-12---|----------------------------|----------------------------|----------------------------|----------------------------|----------------------------|----------------------------|----------------------------|----------------------------|
--12-12-12-12-12-12-12-12---|--12-12-12-12-12-12-12-12---|--10-10-10-10-10-10-10-10---|--10-10-10-10-10-10-10-10---|----------------------------|----------------------------|----------------------------|----------------------------|----------------------------|----------------------------|----------------------------|----------------------------|
----------------------------|----------------------------|----------------------------|----------------------------|--14-14-14-14-14-14-14-14---|--14-14-14-14-14-14-14-14---|----------------------------|----------------------------|----------------------------|----------------------------|----------------------------|----------------------------|
----------------------------|----------------------------||----------------------------|----------------------------||--14-14-14-14-14-14-14-14---|--14-14-14-14-14-14-14-14---||----------------------------|----------------------------||----------------------------|----------------------------||----------------------------|----------------------------||
======================================================================== ------------------------------------------------------------------------ ========================================================================
Backup Guitar========================================================================E |----|----|----|----|----|----|----|----|----------------------------|B |----|----|----|----|----|----|----|----|--7--7--7--7--7--7--7--7----|G |----|----|----|----|----|----|----|----|----------------------------|D |----|----|----|----|----|----|----|----|--4--4--4--4--4--4--4--4----|A |----|----|----|----|----|----|----|----|----------------------------|E |----|----|----|----|----|----|----|----|----------------------------|
----------------------------|----------------------------|--7--7--7--7--7--7--7--7----|--9--9--9--9--9--9--9--9----|----------------------------|----------------------------|--4--4--4--4--4--4--4--4----|--6--6--6--6--6--6--6--6----|----------------------------|----------------------------|----------------------------|----------------------------|
----------------------------|----------------------------|--9--9--9--9--9--9--9--9----|--7--7--7--7--7--7--7--7----|----------------------------|----------------------------|--6--6--6--6--6--6--6--6----|--4--4--4--4--4--4--4--4----|----------------------------|----------------------------|----------------------------|----------------------------|
----------------------------|----------------------------|--7--7--7--7--7--7--7--7----|--9--9--9--9--9--9--9--9----|----------------------------|----------------------------|--4--4--4--4--4--4--4--4----|--6--6--6--6--6--6--6--6----|----------------------------|----------------------------|----------------------------|----------------------------|
----------------------------|----------------------------|--9--9--9--9--9--9--9--9----|--10-10-10-10-10-10-10-10---|----------------------------|----------------------------|--6--6--6--6--6--6--6--6----|--7--7--7--7--7--7--7--7----|----------------------------|----------------------------|----------------------------|----------------------------|
----------------------------|----------------------------|--10-10-10-10-10-10-10-10---|--7--7--7--7--7--7--7--7----|----------------------------|----------------------------|--7--7--7--7--7--7--7--7----|--4--4--4--4--4--4--4--4----|----------------------------|----------------------------|----------------------------|----------------------------|
----------------------------|----------------------------|--7--7--7--7--7--7--7--7----|--10-10-10-10-10-10-10-10---|----------------------------|----------------------------|--4--4--4--4--4--4--4--4----|--7--7--7--7--7--7--7--7----|----------------------------|----------------------------|----------------------------|----------------------------|
----------------------------|----------------------------|--10-10-10-10-10-10-10-10---|--9--9--9--9--9--9--9--9----|----------------------------|----------------------------|--7--7--7--7--7--7--7--7----|--6--6--6--6--6--6--6--6----|----------------------------|----------------------------|----------------------------|----------------------------|
----------------------------|----------------------------|--9--9--9--9--9--9--9--9----|--10-10-10-10-10-10-10-10---|----------------------------|----------------------------|--6--6--6--6--6--6--6--6----|--7--7--7--7--7--7--7--7----|----------------------------|----------------------------|----------------------------|----------------------------|
----------------------------|----------------------------|--10-10-10-10-10-10-10-10---|--7--7--7--7--7--7--7--7----|----------------------------|----------------------------|--7--7--7--7--7--7--7--7----|--4--4--4--4--4--4--4--4----|----------------------------|----------------------------|----------------------------|----------------------------|
----------------------------|----------------------------|--7--7--7--7--7--7--7--7----|--10-10-10-10-10-10-10-10---|----------------------------|----------------------------|--4--4--4--4--4--4--4--4----|--7--7--7--7--7--7--7--7----|----------------------------|----------------------------|----------------------------|----------------------------|
----------------------------|----------------------------|--10-10-10-10-10-10-10-10---|--9--9--9--9--9--9--9--9----|----------------------------|----------------------------|--7--7--7--7--7--7--7--7----|--6--6--6--6--6--6--6--6----|----------------------------|----------------------------|----------------------------|----------------------------|
----------------------------|----------------------------|--9--9--9--9--9--9--9--9----|--7--7--7--7--7--7--7--7----|----------------------------|----------------------------|--6--6--6--6--6--6--6--6----|--4--4--4--4--4--4--4--4----|----------------------------|----------------------------|----------------------------|----------------------------|
----------------------------|----------------------------|--7--7--7--7--7--7--7--7----|--10-10-10-10-10-10-10-10---|----------------------------|----------------------------|--4--4--4--4--4--4--4--4----|--7--7--7--7--7--7--7--7----|----------------------------|----------------------------|----------------------------|----------------------------|
----------------------------|----------------------------|--10-10-10-10-10-10-10-10---|--7--7--7--7--7--7--7--7----|----------------------------|----------------------------|--7--7--7--7--7--7--7--7----|--4--4--4--4--4--4--4--4----|----------------------------|----------------------------|----------------------------|----------------------------|
----------------------------|----------------------------|--7--7--7--7--7--7--7--7----|--10-10-10-10-10-10-10-10---|----------------------------|----------------------------|--4--4--4--4--4--4--4--4----|--7--7--7--7--7--7--7--7----|----------------------------|----------------------------|----------------------------|----------------------------|
----------------------------|----------------------------|--10-10-10-10-10-10-10-10---|--7--7--7--7--7--7--7--7----|----------------------------|----------------------------|--7--7--7--7--7--7--7--7----|--4--4--4--4--4--4--4--4----|----------------------------|----------------------------|----------------------------|----------------------------|
----------------------------|----------------------------|--7--7--7--7--7--7--7--7----|--10-10-10-10-10-10-10-10---|----------------------------|----------------------------|--4--4--4--4--4--4--4--4----|--7--7--7--7--7--7--7--7----|----------------------------|----------------------------|----------------------------|----------------------------|
----------------------------|----------------------------|--10-10-10-10-10-10-10-10---|--7--7--7--7--7--7--7--7----|----------------------------|----------------------------|--7--7--7--7--7--7--7--7----|--4--4--4--4--4--4--4--4----|----------------------------|----------------------------|----------------------------|----------------------------|
----------------------------|----------------------------|--7--7--7--7--7--7--7--7----|--10-10-10-10-10-10-10-10---|----------------------------|----------------------------|--4--4--4--4--4--4--4--4----|--7--7--7--7--7--7--7--7----|----------------------------|----------------------------|----------------------------|----------------------------|
----------------------------|----|----|----|----||--10-10-10-10-10-10-10-10---|----|----|----|----||----------------------------|----|----|----|----||--7--7--7--7--7--7--7--7----|----|----|----|----||----------------------------|----|----|----|----||----------------------------|----|----|----|----||
Please rate this tab:
x1.0