Hillsong - Hosanan tab

This is hosanna tab in the album "All of the Above"
Send me comments and pls rate it or mail me at lemueljohn_lj48@yahoo.com
God Bless You!!!!

Tabs
Add some delay (maybe the dotted 8th note one) for the clean parts.

Intro-----4-------4------------------|---5-----5h7---------4-------4--|-6-----6-----------4-----4h6----|-----------------6-----6--------|--------------------------------|--------------------------------|
--------------------------------|-------5---5--------4--------4--|-----6-------6----4------4h6----|-6s7-----7------6------6--------|--------------------------------|--------------------------------|
-----4-------4------------------|---5-----5h7---------4-------4--|-6-----6-----------4-----4h6----|-----------------6-----6--------|--------------------------------|--------------------------------|
-----------7-------------9------|-------5-----5------7------7----|-----6------------8-------------|-6s7-----7------9------9--------|--------------------------------|--------------------------------|
Chords: C#m E F#m G#m
Verse-----12------4-----------------|---9-------5--------2--4-------|-9-------6--------2------4---4-|----------------4----------4---|-------------------------------|-------------------------------|(First three notes are optional, I didn't play them the 2nd time round)
Chords: E C#m F#m B
Pre-Verse(played in between the verses in the first round, and before the verse after the 1st chorus)-----4-----4-----4-----7-----5---4-|---5-----5-----5-----5-----5-------|-6-----6-----6-----6-----6-----6---|-----------------------------------|-----------------------------------|-----------------------------------|
Chords: C#m Chorus: Play this during the 1st chorus, and the chorus right after the bridge.
-----0-------0-------0-------0-----|---0---0---0---0---0---0---0---0---|-----------------------------------|-----------------------------------|---------0-------2-------4---------|-4---------------------------------|
-----0-------0-------0-------0-----|---0---0---0---0---0---0---0---0---|-----------------------------------|-----------------------------------|-0-------4-------2-------2---------|-----------------------------------|
-----0-------0-------0-------0-----|---0---0---0---0---0---0---0---0---|-----------------------------------|-----------------------------------|---------0-------2-------4---------|-4---------------------------------|
-----0-------0---|---0---0---0---0-|-----------------|-----------------|-0-------2-------|-----------------|
Chords: E/G# A B C#m A C#m B B E/G# A B C#m A B
InstrumentalI used an octaver to double my notes an octave lower here, but you can play it without octaves too. I did a slide between all my notes too.--------------------------------|-12-12-12-12-12-9-7-9--(x2)-----|--------------------------------|--------------------------------|--------------------------------|--------------------------------|
--------------------------------------|-10-10-10-10-10-9-7-5-4-4-4-4-5-5-7-7-|--------------------------------------|--------------------------------------|--------------------------------------|--------------------------------------|
--------------------------------|-12-12-12h14-12-12-9-7-9-(x2)---|--------------------------------|--------------------------------|--------------------------------|--------------------------------|
-------11----11----11-12-14-14-14-14-14-14-14-14-|-10-10----10----10-------------------------------|-------------------------------------------------|-------------------------------------------------|-------------------------------------------------|-------------------------------------------------|
Chords: C#m E F#m G#m Bridge Chords: A B E C#m A B C#m C#m
Guitar fill:--------------------------------|-------9-----------10----9------|-------11b13--(x3)-13b14-11b13--|-11-11--------------------------|--------------------------------|--------------------------------|
Post-Bridge---------9--------------9--------------|------12---12--------12---12--------12-|----9---------9----9---------9----9----|-11-------------11-------------11------|---------------------------------------|---------------------------------------|
God Bless!!! Tabbed by LemuelJohn....
Tap to rate this tab
 
# A B C D E F G H I J K L M N O P Q R S T U V W X Y Z