Hillsongs - I Give My All tab version 2

I Give My All

*Standard Tuning

Intro------------------------------------------------|---9-10-10/12-12-12-----------------------------|----------------------11p9-9-11^-9-9------------|--------------------------9-9-------------------|------------------------------------------------|------------------------------------------------|
----------------12-14^-12-12h-14p12-11-------------|----------12-14-----------------------14-12--------|--->11-13-----------------------------------13-----|-----------------------------------------------14--|---------------------------------------------------|---------------------------------------------------|
-------------------------|-------------------------|-------------------------|---9-11-9----------------|----------11-9-7---7-----|-----------------9-------|
Verse...grace----------------------------|---12/14-12-----------------|---11/13-11-9------9h11-9---|--------------9h11----------|----------------------------|----------------------------|
...soul-------------------------|-------------------------|-------------9-11---9-9--|--------9-10------9------|---9h11------------------|-------------------------|
Ref---------- ---------- ---------------------|------12^- ---------- -10-9-10-10/12-12-12-|----9----- --------9- ---------------------|---------- ---9h11--- ---------------------|---------- ---------- ---------------------|---------- ------ --- ---------------------|
Chorus------------------------------------------------------------------|-10-9---10-9---10-9---10-9--10-9----10-9---10-9---10-9---10/12-12-|------9------9------9-----9-----9--------9------9------9----------|(2x)------------------------------------------------------------------|------------------------------------------------------------------|------------------------------------------------------------------|
------------------------------------------------------|---12-----12-----12-----12-----12--9-10-9-10/12-12----|-9----8h9----8h9----8h9----8h9------------------------|------------------------------------------------------|------------------------------------------------------|------------------------------------------------------|
adlib-----------------------------------11h12p11--------|-----9-9-10-9--------------9-10-12----------12-12--|--------------11-9-11^-----------------------------|-7/9-------------------9-9-------------------------|---------------------------------------------------|---------------------------------------------------|
----------------------------|-10p9-----------------------|------11p9----9-11^-11p9-11-|-----------11---------------|----------------------------|----------------------------|
Verse...free---------------------------------|---12/14-12-14\12-10-10/12-------|---11/13-11-13\11-9--9/11--------|---------------------------------|---------------------------------|---------------------------------|
...and use me--------------------------------------|--------------9h10p9----10-9----9-10--|------------9--------11------11-------|-------9-11---------------------------|--9h11--------------------------------|--------------------------------------|
Ref---------- ----------------------- -------------------------9-11-12-|--10-9---- -10p9------------------ ---------9-10----9-10-12---------|---------- ------11p9----9-11----- ----9-11------11-----------------|---------- -----------11------9-9- -11------------------------------|---------- ----------------------- ---------------------------------|---------- ----------------------- ---------------------------------|
Chorus------------------------------------------------------------------|-10-9---10-9---10-9---10-9--10-9----10-9---10-9---10-9---10/12-12-|------9------9------9-----9-----9--------9------9------9----------|(2x)------------------------------------------------------------------|------------------------------------------------------------------|------------------------------------------------------------------|
------------------------------------------------------|---12-----12-----12-----12-----12---------------------|-9----8h9----8h9----8h9----8h9----9-8-----------------|--------------------------------------9-9/10----------|------------------------------------------------------|------------------------------------------------------|
Pre-chorus-----------------------------------------------------------------|-------12-----12-----12-----12-------12--------------------------|----8h9----8h9----8h9----8h9------8h9----------------------------|-----------------------------------------------------------------|-----------------------------------------------------------------|-----------------------------------------------------------------|
Chorus------------------------------------------------------------------|-10-9---10-9---10-9---10-9--10-9----10-9---10-9---10-9---10/12-12-|------9------9------9-----9-----9--------9------9------9----------|(2x)------------------------------------------------------------------|------------------------------------------------------------------|------------------------------------------------------------------|
-----------------------------------------------------------7h9p7-|---12-----12-----12-----12-----12-------12-----12-----12---------|-9----8h9----8h9----8h9----8h9------8h9----8h9----8h9----9-------|-----------------------------------------------------------------|-----------------------------------------------------------------|-----------------------------------------------------------------|
----------------9-12-12/14-12----12-9----------------------------|-----------9-12---------------14------12-9-----------------------|------9-11---------------------------------11-9------9^---9-9----|-9-11-------------------------------------------11-9---11--------|-----------------------------------------------------------------|-----------------------------------------------------------------|
----------12-14^-14-12----12-14^-14-12-------------|----12-14--------------14--------------14-12/14----|->13-----------------------------------------------|---------------------------------------------------|---------------------------------------------------|---------------------------------------------------|
-9h12------------------------|------9h12-------------------|-----------9h11p9----9-------|------------------11---------|-----------------------------|-----------------------------|
...to you---------------------------12p11----11-12^-11---|---12^-10p9-10-------------------12-------------|-9-------------11p9-11^-11----------------------|------------------------------------------------|------------------------------------------------|------------------------------------------------|
----------------------------------------------------|----------------------------------------------------|---9-11^p9----9-11^p9---------9---------------------|-11---------11---------11-9-11--11--->11-9---9------|------------------------------------------11---9/11-|----------------------------------------------------|
frendsen 19102010-01
Tap to rate this tab
 
# A B C D E F G H I J K L M N O P Q R S T U V W X Y Z