Him – Killing Loneliness tab ver. 2

Artist: H.I.M.(His Infernal Majesty)
Song: Killing Loneliness
Section: Whole Song
Instrument: Keyboard/Piano, Guitar(s)
Difficulty: Intermediate
Submitted By: NightmareNeto

Intro(Keyboard/Piano)0:00-0:12|--------------------||----5-----4---------||----------------3-5-|x2|--5-----5-----------||-3-----3------6-----||-------------4------|
Intro(Guitar)0:07-0:14|---------------------------------------------------------||---------------------------------------------------------||---------------------------------------------------------||------------8-8-8----------------------------------------||10-10-10-10-6-6-6-8-8-8-8--5-5-5-6-6-6----5-6-6-6-5-6-5--||8--8--8--8--------6-6-6-6--3-3-3-4-4-4----3-4-4-4-3-4-3--|
0:14-0:21|---------------------------------------------------------||---------------------------------------------------------||---------------------------------------------------------||------------8-8-8----------------------------------------||10-10-10-10-6-6-6-8-8-8-8--5-5-5-6-6-6----5-6-6-6-5-6-8--||8--8--8--8--------6-6-6-6--3-3-3-4-4-4----3-4-4-4-3-4-6--|
0:21-0:28|---------------------------------------------------------||---------------------------------------------------------||---------------------------------------------------------||------------8-8-8----------------------------------------||10-10-10-10-6-6-6-8-8-8-8--5-5-5-6-6-6----5-6-6-6-5-6-5--||8--8--8--8--------6-6-6-6--3-3-3-4-4-4----3-4-4-4-3-4-3--|
Verse(Keyboard/Piano)0:29-0:54|----8--------8----6--------6----4--------4----3----||---4-----------------------------------------------||--5---------3-------------1-------------5----------|x2 Don't play the very|-5---------5-------------3-------------6-----------|last part the second|3---------5-------------3-------------6------------|time.|---------3-------------1-------------4-------------|
Verse(Guitar)0:42-0:53|-----------------------------------------------------------------------||-----------------------------------------------------------------------||8-7--------------------------------------------------------------------||x-x-5--5-5-5-5---5-5-5--5-5-5-5--5-5-5---------------------------------||6-5-x--3-3-3-3---3-3-3--3-3-3-3--3-3-3-5-5-5-5---5-5-5--5-5-5-5--5-5-5-||----3----------------------------------3-3-3-3---3-3-3--3-3-3-3--3-3-3-|
|--------------------------------||--------------------------------||--------------------------------||--------------------------------||3-3-3-3---3-3-3--3-3-3-3--3-3-3-||1-1-1-1---1-1-1--1-1-1-1--1-1-1-|
Chorus(Guitar)0:53-|---------------------------------------------------------------------------|---------------------------------------------------------------------------|---------------------------------------------------------------------------|--8---8---8----8------5-5-5-5-5-5-5-5--8-8-8-8-8-8-8-8---------------------|6-6-6-6-6-6--6-6-8-8--3-3-3-3-3-3-3-3--6-6-6-6-6-6-6-6-6-6-6-6-6-6-6-6-6-6-|4---4---4----4---6-6-----------------------------------4-4-4-4-4-4-4-4-4-4-
-1:11 1:12-|------------| |----------------------------------------------------------|------------| |----------------------------------------------------------|------------|x2 |----------------------------------------------------------|------------| |5----5--5-5-8--8-8--8-8-8---------------5----5--5-5-8--8-8|6-6-6-6-6-6-| |3----3--3-3-6--6-6--6-6-6-6-6----6-6----3----3--3-3-6--6-6|4-4-4-4-4-4-| |--------------------------4-4----4-4----------------------
-1:25|--------------------------------------||--------------------------------------||--------------------------------------||--8-8-8-------------------------------||--6-6-6-6-6-6-6-6-6-6-6-6-6-6-6--/12\-||--------4-4-4-4-4-4-4-4-4-4-4-4--/12\-|
Bridge(Guitar)1:27-|---------------------------------------------------------||---------------------------------------------------------||---------------------------------------------------------||------------8-8-8----------------------------------------||10-10-10-10-6-6-6-8-8-8-8--5-5-5-6-6-6----5-6-6-6-5-6-8--||8--8--8--8--------6-6-6-6--3-3-3-4-4-4----3-4-4-4-3-4-6--|
|---------------------------------------------------------||---------------------------------------------------------||---------------------------------------------------------||------------8-8-8----------------------------------------||10-10-10-10-6-6-6-8-8-8-8--5-5-5-6-6-6----5-6-6-6-5-6-5--||8--8--8--8--------6-6-6-6--3-3-3-4-4-4----3-4-4-4-3-4-3--|
Break(Lead Guitar)2:38-|-------------------------------------------------------------------------||---4---4----4--------3---3---3-------------------------------------------||--5---5----5---5----5---5---5---5----------------------------------------||-5---5----5---5-5--5---5---5---5-5---------------------------------8---8-||3-----------------3----------------6-6-5-6--------6-6-5-6--------6-6-6-6-||-----------------------------------4-4-3-4--------4-4-3-4--------4---4---|
|---------------------------------------------------------------------------||---------------------------------------------------------------------------||---------------------------------------------------------------------------||--8----8-------------------------------------------------------------------||6-6--6-6--8--8-6-6-6-6----6-6-6--6--6-8-10-8-6-6-----------6-6-6--6--6-8-10||4----4----6--6-4-4-4-4----4-4-4--4--4-6-8-6-4-4--4-4-4-4---4-4-4--4--4-6-8-|
-3:09|--------------------------------------------------||--------------------------------------------------||--------------------------------------------------||---------8---8---8----8--------8---8---8----8-----||8-6-6--6-6-6-6-6-6--6-6-8-8--6-6-6-6-6-6--6-6-8-8-||6-4-4--4---4---4----4---6-6--4---4---4----4---6-6-|
Break(Acoustic Guitar)|-----------------------------------------------------------------------||---4---4----4---------3---3---3--------6----4----3-------6----4---3----||--5---5----5---5-----5---5---5---5------5----5----5-------5----5---5---||-5---5----5---5-5---5---5---5---5-5------5----5----5-------5----5---5--||3------------------3----------------------3----3----3-------3----3---3-||-----------------------------------------------------------------------|
Outro(Keyboard/Piano)|--------------------||----5-----4---------||----------------3-5-||--5-----5-----------||-3-----3------6-----||-------------4------|
Outro(Guitar)|---------------------------------------------------------||---------------------------------------------------------||---------------------------------------------------------||------------8-8-8----------------------------------------||10-10-10-10-6-6-6-8-8-8-8--5-5-5-6-6-6----5-6-6-6-5-6-5--||8--8--8--8--------6-6-6-6--3-3-3-4-4-4----3-4-4-4-3-4-3--|
|---------------------------------------------------------||---------------------------------------------------------||---------------------------------------------------------||------------8-8-8----------------------------------------||10-10-10-10-6-6-6-8-8-8-8--5-5-5-6-6-6----5-6-6-6-5-6-8--||8--8--8--8--------6-6-6-6--3-3-3-4-4-4----3-4-4-4-3-4-6--|
|---------------------------------------------------------||---------------------------------------------------------||---------------------------------------------------------||------------8-8-8----------------------------------------||10-10-10-10-6-6-6-8-8-8-8--5-5-5-6-6-6----5-6-6-6-5-6-5--||8--8--8--8--------6-6-6-6--3-3-3-4-4-4----3-4-4-4-3-4-3--|
Song Structure: Intro Verse Chorus Bridge Verse Chorus Break Chorus Outro
Please rate this tab:
x1.0